From: [email protected] (Judy Letostak)
Yngwie Malmsteen "On the Run Again"
from Marching Out
[email protected]
tune down 1/2 step
Fig 1
Main Riff
|-------------------------|--------------------------------|
|-------------------------|--------------------------------|
|-------2--------1-----2--|-------2-----4---2---1----------|
|-------2--------2-----2--|-------2-----4---2---2----------|
|-------------------------|-------------------------4------|
|-2--2-----2--2-----2-----|-2--2-----2--------------2------|
Intro solo
continue to play fig 1
|----------19bf--|-19bf~-----------------|---------------------------------|
|--19~-----------|-----------------14-14-|-17bf~------17p14h17--17bf~------|
|----------------|-----------------------|---------------------------------|
|----------------|-----------------------|---------------------------------|
|----------------|-----------------------|---------------------------------|
|----------------|-----------------------|---------------------------------|
|-------------17p14-19p14----14-20p14-19-14-|----14-19-17-14----17-14-------
|--/14--18p14-------------17----------------|-17-------------17-------17bf--
|-------------------------------------------|-------------------------------
|-------------------------------------------|-------------------------------
|-------------------------------------------|-------------------------------
|-------------------------------------------|-------------------------------
1/2
-14-------------------|--14---------------------------|-------------14------
----17-14----14-------|-----17-14---------------------|----------15----15-17
----------18----17b~--|-----------17-16-14----16-14~--|-13/14h16------------
----------------------|--------------------16---------|---------------------
----------------------|-------------------------------|---------------------
----------------------|-------------------------------|---------------------
----------------------|----------------------------------------------------|
-14-15-14----------14-|-15-19-17-15-14-17-15-14----15-14-------14----------|
----------16-14-16----|-------------------------16-------16-14----16-14----|
----------------------|----------------------------------------------------|
----------------------|----------------------------------------------------|
----------------------|----------------------------------------------------|
1/2 1 1/2
|----------------------------17p14----/21p16-------|-21b~---rb21--21b------|
|-------------------14-19p14-------14--------19----|-----------------------|
|-13-16-14-13----14-----------------------------18-|-----------------------|
|-------------16-----------------------------------|-----------------------|
|--------------------------------------------------|-----------------------|
|--------------------------------------------------|-----------------------|
Verse
1. Outcast not knowing right from wrong
2. Renegade he fled from town to town
|--------------------|----------------------------|------------------------|
|--------------------|----------------------------|------------------------|
|------------7-------|--------2-------------------|------------------------|
|-4----------7-------|--------2------2---------4--|-(4)--------------4-----|
|-4----------5-------|--------0------2---------4--|-(4)--------------4-----|
|-2------------------|---------------0---------2--|-(2)--------------2-----|
Surrounded by women wine and song
vigilatnes joined to hunt him down
|--------------------|-------------------------|---------------------------|
|-------0------------|-------------------------|---------------------------|
|--------------------|--------------7----------|----------2----------------|
|----------4-----4---|--(4)---------7----------|----------2---2------4-----|
|----------------4---|--(4)---------5----------|----------0---2------4-----|
|----------------2---|--(2)--------------------|--------------0------2-----|
Never still always
For his head lies
nat harm ------- pick slide palm mute
|-----------7-----------|--------------------|-----------------------------|
|-----------7----7------|--------------------|-----------------------------|
|----------------7------|--------------------|-----------------------------|
|--(4)---------------4--|-----x\-------------|-----------------------------|
|--(4)---------------4--|-----x\-------------|-----------------------------|
|--(2)---------------2--|--------------------|-2--2--2--2--2--2--2--2------|
on the run Prince
a mighty price
|-------------------------|-----------------------|------------------------|
|-------------------------|-----------------------|------------------------|
|-------------------------|------------%----------|-----------%------------|
|-------------------------|-----------------------|------------------------|
|-------------------------|-----------------------|------------------------|
|-2--2--2--2--2--2--2--2--|-----------------------|------------------------|
of the Night killer with a gun
He's a wanted man dead or alive
-------------------------|-----------------------|------------------------|
-------------------------|-----------------------|------------------------|
-------------------------|------------%----------|-----------%------------|
-------------------------|-----------------------|------------------------|
-------------------------|-----------------------|------------------------|
-2--2--2--2--2--2--2--2--|-----------------------|------------------------|
Now he's taken a life away
Where will he go from here
-------------------------|-------------------|----------------------------|
-------------------------|-------------------|----------------------------|
----------------------7--|--(7)--------------|-------7--------------------|
----------------------7--|--(7)--------------|-------7--------------------|
----------------0--3--5--|--(5)--------------|-5--5--5--5--5--5--4--2-----|
-2--2--2--2--2-----------|-------------------|----------------------------|
---------------------|-----------------------|----------------------------|
---------------------|-----------------------|----------------------------|
-----------------9---|-(9)------10-----------|-----2------1-------2-------|
-----------------9---|-(9)------11-----------|-----2------2-------2-------|
--(2~)-----------7---|-(7)-------8---------x-|----------------------------|
---------------------|---------------------2-|--2-----2-------2------2----|
ontinue with main riff (fig 1) throughout solo

olo
---------9-10-12-13----------10-11-13\14----------11-12-14/|15----------12-
-9h10h12------------10-11-13-------------11-12-14----------|---12-13-15----
-----------------------------------------------------------|---------------
-----------------------------------------------------------|---------------
-----------------------------------------------------------|---------------
-----------------------------------------------------------|---------------
hold bend-------------
-13-15-16----------13-14-16/17-14-15-17-19-|-------------------------------
----------13-14-16-------------------------|19bf--19-19-19-19-19-19-19-19--
-------------------------------------------|-------------------------------
-------------------------------------------|-------------------------------
-------------------------------------------|-------------------------------
-------------------------------------------|-------------------------------
--------
-------------|--------------------|-14-16-12-16-11-16----16-14-16-12-16-11-
19-19-19~----|--19bf~-----19bf~---|-------------------14-------------------
-------------|--------------------|----------------------------------------
-------------|--------------------|----------------------------------------
-------------|--------------------|----------------------------------------
-------------|--------------------|----------------------------------------
16-|----16----16-14-16-12-16-11-16----16-------------|---------------------
---|-14----12----------------------14----12-16p12----|-/17h19p14\16-16h17--
---|----------------------------------------------14-|---------------------
---|-------------------------------------------------|---------------------
---|-------------------------------------------------|---------------------
---|-------------------------------------------------|---------------------
----------------------------------11-16p11----------------|-12h14p12\11----
p16\14----14-------------------12----------12----11h12h14-|----------------
-------16----16p15p13-15p13-13----------------13----------|----------------
----------------------------------------------------------|----------------
----------------------------------------------------------|----------------
----------------------------------------------------------|----------------
11h12p11\9---------------------------------------|-------------------------
-----------12p11p9----11p9\7h9p7---7-------------|--------------9-12-------
-------------------11------------9---9p8p6-------|-11bf-rb-11bf------11bf--
-------------------------------------------9p8p6-|-------------------------
-------------------------------------------------|-------------------------
-------------------------------------------------|-------------------------
--------9-11-12-|-14p11-------11-12----11-14p12p11----12p11---------------|
9-11-12---------|-------12-14-------14-------------14-------14bf~---------|
----------------|---------------------------------------------------------|
----------------|---------------------------------------------------------|
----------------|---------------------------------------------------------|
----------------|---------------------------------------------------------|
------------------------|-11----12-11-14-11-16-11/18p16-19-18-16----18-16-|
------11----12p11-14-12-|----14----------------------------------19-------|
--/13----13-------------|-------------------------------------------------|
------------------------|-------------------------------------------------|
------------------------|-------------------------------------------------|
------------------------|-------------------------------------------------|
----------16-18-19-20-21bf---21--20--19--|-18--17--16----------------------
-19bf------------------------------------|---------------19bf--19-16-19----
-----------------------------------------|---------------------------------
-----------------------------------------|---------------------------------
-----------------------------------------|---------------------------------
-----------------------------------------|---------------------------------
------------|--13h16---t19p16p14-t18p16p14p12h14-t19|p16p14-t18p16p14p12h14
------------|---------------------------------------|----------------------
-18bf--18~--|---------------------------------------|----------------------
------------|---------------------------------------|----------------------
------------|---------------------------------------|----------------------
------------|---------------------------------------|----------------------
scoop w/bar---------
t20p16p14h16-t18p16p14p12h16\-|-15---12---15---15--15--11--12--11--|----11-
------------------------------|------------------------------------|-14----
------------------------------|------------------------------------|-------
------------------------------|------------------------------------|-------
------------------------------|------------------------------------|-------
------------------------------|------------------------------------|-------
--------------------------------|-------11-14bf--14bf---------------------|
12-14p12p11-12p11---------------|----12-----------------------------------|
------------------13~-----------|-13--------------------------------------|
-----------------------------13-|-----------------------------------------|
-----------------------11-14----|-----------------------------------------|
--------------------------------|-----------------------------------------|
-12p11p9-----------------------------------------------|-------------------
---------12p11p9----11---------------------------------|-------------------
-----------------11-----13p11p9-11p9\8-----------------|-------------------
---------------------------------------11p9h11--8h9p8--|----8-9----8h9h11--
-------------------------------------------------------|-11-----11---------
-------------------------------------------------------|-------------------
---------------------------------------|-11p9p7----------------------------
-------------------------------9h11h12-|--------11-9p7---------------------
---------------8h9p8----8\9h11---------|---------------11p9p9h9p9\6--------
p9p8----8h9h11-------11----------------|----------------------------8-6\5--
-----11--------------------------------|-----------------------------------
---------------------------------------|-----------------------------------
--------------|
--------------|
---------6bf--|
6---5---------|
--------------|
--------------|
Interlude
|---------------|-------------------------------------|------------|-------|
|---------------|-------------------------------------|------------|-------|
|----6b---------|--6b---6b----6b---6b--6b--6b---------|-rb----4bf--|-(4~)--|
|---------------|-------------------------------------|------------|-------|
|---------------|-------------------------------------|------------|-------|
|---------------|-------------------------------------|------------|-------|
| | | | |
| | | | |
|---------------|-------------------------------------|------------|-------|
|---------------|-------------------------------------|11\12--9~---|-------|
|---------------|-------------------------------------|------------|-------|
|---------------|----------------------------8--9-----|------------|-------|
|----------6----|---------------------6--11-----------|------------|-------|
|-4--6--7-------|------------4--6--7------------------|------------|-------|

|------------|----11--9--7--6--7----------|--------------------------------|
|------------|--------------------9/11----|--------12----------------------|
|------------|----------------------------|-------------9~-----------------|
|------------|----------------------------|--------------------------------|
|------------|----------------------------|--------------------------------|
|------------|----------------------------|--------------------------------|
| | | |
| | | |
|------------|--------------------11--9---|-7--12--11--12--11--9--9~-------|
|------------|-----------------9----------|--------------------------------|
|------------|--------------8-------------|--------------------------------|
|------------|--------8--9----------------|--------------------------------|
|---------4--|-6--11----------------------|--------------------------------|
|---6--7-----|----------------------------|--------------------------------|
|---------------------------|
|---------------------------|
|--(9~)---------------------|
|---------------------------|
|---------------------------|
|---------------------------|
| |
| w/bar--- |
|-(9~)----------------------|
|-------12--11--9/11/12-----|
|---------------------------|
|---------------------------|
|---------------------------|
|---------------------------|
|-------------|------------------------------|------------------------------|
|-------------|----9--11-12--11-9--7---------|-9--7--9~---------------------|
|-------------|-----------------------9------|------------------------------|
|-------------|------------------------------|------------------------------|
|-------------|------------------------------|------------------------------|
|-------------|------------------------------|------------------------------|
| | | |
|He's got |mixed emotions |running through his |
|-------------|------------------------------|------------------------------|
|-------------|---------------------11--12---|14-12-11----12p11-------11----|
|-------------|--------------8--13-----------|---------13-------13-11----13-|
|-------------|--------8--9------------------|------------------------------|
|-------------|-6--11------------------------|------------------------------|
|-4--6--7--9--|------------------------------|------------------------------|
|-------------------|-----------------------|------------------------------|
|-(9~)--------------|-----------------------|------------------------------|
|-------------------|-----------------------|------------------------------|
|-------------------|-11--8--9--11--8--9----|------------------------------|
|-------------------|-----------------------|------------------------------|
|-------------------|-----------------------|------------------------------|
| | | |
| head | |with a crazy |
|-------------------|-----------------------|------------------------------|
|-------------------|-x---------------------|------------------------------|
|-11-x-13-11-9-8----|----x------------------|------------------------------|
|-------------------|--------9--8--9--8~----|--------------------8--9------|
|-------------------|-----------------------|-----------6--11--------------|
|-------------------|-----------------------|-4-h-6--7---------------------|
pick scrape
|-----------------------------|-----------------|---------------|-----------|
|-----------------------------|-----------------|---------------|-----------|
|-----------------------------|----------8------|---------------|-----------|
|-----------------------------|----------8------|--x\-----------|-----------|
|-----------------------------|----------6------|--x\-----------|-----------|
|-----------------------------|-----------------|---------------|-----------|
| | | | |
|notion |he's gonna end up|dead | |
|-----------------------------|------15---------|-15--------15--|----15~----|
|----9--12--14--12-11---------|-18bf------------|-18b--18b------|-18b-------|
|-8--------------------13--13~|-----------------|---------------|-----------|
|-----------------------------|-----------------|---------------|-----------|
|-----------------------------|-----------------|---------------|-----------|
|-----------------------------|-----------------|---------------|-----------|
|------------------|------------------|------------------------------------|
|------------------|------------------|------------------------------------|
|--------------4~--|---3--------------|-3--4--6--6bf-----------------------|
|-6~--5--6--4------|------6--5--6~----|------------------------------------|
|------------------|------------------|------------------------------------|
|------------------|------------------|------------------------------------|
| | | |
| |He's on the run |again |
|------------------|------------------|------------------------------------|
|------------------|------------------|----4--5--5bf-----------------------|
|-4~--3--4---6bf---|---6--4--3--4~----|-6----------------------------------|
|------------------|------------------|------------------------------------|
|------------------|------------------|------------------------------------|
|------------------|------------------|------------------------------------|
|-------------------------|--------------|---------------------------------|
|-------------------------|--------------|---------------------------------|
|--rb6---p4--6~--4--------|-----------4~-|-----3---------------------------|
|-------------------4--6~-|--5--6--4-----|-----------6-------5---6~--------|
|-------------------------|--------------|---------------------------------|
|-------------------------|--------------|---------------------------------|
| | | |
| on the run again | |on the run again |
|-------------------------|--------------|---------------------------------|
|--rb5---p4--5~--4--------|--------------|---------------------------------|
|-------------------6--4~-|--3--4--6--6bf|------6----4-------3---4~--------|
|-------------------------|--------------|---------------------------------|
|-------------------------|--------------|---------------------------------|
|-------------------------|--------------|---------------------------------|
|---------------|-----------------------------|----------------------------|
|---------------|-----------------------------|----------------------------|
|-3--4--6--6bf--|-rb6----4---6~----4----------|---------------3----4~------|
|---------------|---------------------4--6~---|-----5---6------------------|
|---------------|-----------------------------|----------------------------|
|---------------|-----------------------------|----------------------------|
| | | |
| | | |
|---------------|-----------------------------|----------------------------|
|----4--5--5bf--|-rb5----4---5~----4----------|----------------------------|
|-6-------------|---------------------6--4~---|-----3---4-----6----6bf-----|
|---------------|-----------------------------|----------------------------|
|---------------|-----------------------------|----------------------------|
|---------------|-----------------------------|----------------------------|
|-------------------|-------------------|----------------------------------|
|-------------------|-------------------|---------------------x------------|
|--3----------------|---3--4---6bf------|--rb6--p4---6~-------4---3--------|
|-------6----5--6~--|-------------------|------------------------------6~--|
|-------------------|-------------------|----------------------------------|
|-------------------|-------------------|----------------------------------|
| | | |
|He's on the run |again |Tell me when will it end |
|-------------------|-------------------|----------------------------------|
|-------------------|------4---5bf------|--rb5---p4--5~-------4------------|
|--6----4----3--4~--|---6---------------|-------------------------6----4~--|
|-------------------|-------------------|----------------------------------|
|-------------------|-------------------|----------------------------------|
|-------------------|-------------------|----------------------------------|
|---------------|------------------|-----------------|----------------------|
|---------------|------------------|-----------------|-------------------9~-|
|--------3--4~--|--3---------------|-3---4-----6bf---|--rb6-p4--6~--4--3----|
|--5--6---------|------6----5--6---|-----------------|----------------------|
|---------------|------------------|-----------------|----------------------|
|---------------|------------------|-----------------|----------------------|
| | | | |
| | | | |
|---------------|------------------|-----------------|--------------------7~|
|---------------|------------------|-----4-----5bf---|--rb5--p4--5~--4------|
|--3--4--6bf----|--6---4----3--4---|-6---------------|------------------6---|
|---------------|------------------|-----------------|----------------------|
|---------------|------------------|-----------------|----------------------|
|---------------|------------------|-----------------|----------------------|
|---(7~)--------------------|---------------------|-----------|-------------|
|---(9~)--------------------|---------------------|-----------|-------------|
|---------------------------|---------------------|-----------|-------------|
|---------------------------|---------------------|-----------|-------------|
|---------------------------|---------------------|-----------|-------------|
|---------------------------|---------------------|-----------|-------------|
| | | | |
| | | | |
|---------------------------|---------------------|-----------|-------------|
|---------------------------|---------------------|-----------|-------------|
|-4----3------4-------------|---4-----6\4--3------|-4--3--4---|---4---6-4-3-|
|-4----4------4-------------|---4-----6\4--4------|-4--3--4---|---4---6-4-4-|
|-----------------6---------|------------------6--|---------6-|------------6|
|---4-----4-------4---------|-4----4-----------4--|---------4-|-4---4------4|
|---------------------------|-------------------------|---------------------|
|---------------------------|-------------------------|---------------------|
|-----4-----3-------4-------|----4----*10--8----------|10--8----------------|
|-----4-----4-------4-------|----4------------11--9~--|-------11--9~--------|
|-6---------------------6---|----------4--------------|-4-------------------|
|-4------4------4-------4---|-4-----4------7---6--4~--|----7---6--4~--------|
* top notes are harmony guitars




Ваше мнение



Капча