#----------------------------------PLEASE NOTE---------------------------------#
#This file is the author's own work and represents their interpretation of the #
#song. You may only use this file for private study, scholarship, or research. #
#------------------------------------------------------------------------------##
Yngwie Malmsteen - Now Your Ships are Burned
from Rising Force
[email protected]
FidoNet 1:202/762
MetalNet 666:666/2
|----x--x----------|--------------------------------|---------------------|
|----x--x----------|--------------------------------|---------------------|
|------------------|-----4--5~--4p2-----------------|----------%----------|
|------------------|-----------------5--4--2--1-----|---------------------|
|------------------|--2--------------------------3--|---------------------|
|------------x----|--------------------------------|---------------------|
Repeat riff
|-----------------|--------------------|---------------|------------------|
|-----------------|--------------------|---------------|------------------|
|-----------------|--------------------|---------------|------------------|
|-----------------|--------------------|---------------|------------------|
|-----------------|--------------------|---------------|------------------|
|-----------------|--------------------|---------------|------------------|
|-----------|---------------|-----------------------7h8p7p5----------------|
|-----------|---------------|----------------4h5h7-----------8p7--5h7p54~-|
|-----------|---------------|---------4h5h7--------------------------------|
|--4--------|--4------5-----|--4h5h7---------------------------------------|
|--2--------|--2------3-----|----------------------------------------------|
|-----------|---------------|----------------------------------------------|
||-----------------------------------------------|-------------------------|
||-----------------------------------------------|-------------------------|
||*----------------------------------------------|-------------------------|
||*------------1h2p1-----------1-----------5--4--|----------1h2p1----------|
||----0--2--3---------3--2--0-----3--2--0--3--2--|-0--2--3---------3--2--0-|
||-----------------------------------------------|-------------------------|
--------------------------|-----------------------------------------------|
--------------------------|-----------------------------------------------|
--------------------------|-----------------------------------------------|
--1-----------------------|----------1h2p1-----------1-----------5--4-----|
-----3--2--0--------------|-0--2--3---------3--2--0-----3--2--0--3--2-----|
--------------3--2--0--2--|-----------------------------------------------|
|--------------------------------------------------|-----------------------|
|--------------------------------------------------|-----------------------|
|--------------------------------------------------|-----------------------|
|----------1h2p1-----------1-----------------------|-----------------------|
|-0--2--3---------3--2--0-----3--2--0--------------|----------1h2p1--------|
|--------------------------------------3--2--0--2--|-0--2--3---------3--2--|
Solo fill 1
------------------------|---8p7p5-----------------------------------------|
------------------------|----------8p7p5----------------------------------|
------------------------|-----------------8--4h5p4------------------------|
------------------------|---------------------------7p5p4~----------------|
-----1------------------|-------------------------------------------------|
--0-----3--2--0--3--2~--|-------------------------------------------------|
Fill 2
|-----8p5----------5p2--------|
|----------7------------4-----|
|-------------8------------5--|
|-----------------------------|
|-----------------------------|
|-----------------------------|
Now your
|--------------------------------------------|-----------------------------|
|--------------------------------------------|-----------------------------|
|--------------------------------------------|-----------------------------|
|--------------------------------------------|-----------------------------|
|-----------1h2p1-----------1----------------|----------1h2p1--------------|
|--0--2--3---------3--2--0-----3--2--0--3--2-|-0--2--3---------3--2--0--2--|
Ships are burned and the evil has returned It will
|----------------------------------|--------------------------------------|
|----------------------------------|--------------------------------------|
|----------------------------------|--------------------------------------|
|--4----4----5----------5----------|-4----4----2--------------------------|
|--2----2----3----0--0--3----0--0--|-2----2----0-----3p2------------------|
|----------------------------------|----------------------5p3p2p0---------|
creep up on you there's nothing to do. It will
|---------------------------------|---------------------------------------|
|---------------------------------|---------------------------------------|
|---------------------------------|---------------------------------------|
|--4----4----5----------5---------|--4----4----2--------------------------|
|--2----2----3----0--0--3---0--0--|--2----2----0--------------------------|
|---------------------------------|---------------------------0--2--------|
rip up your mind and death you will find Life is just a game and
|------------------------|--------------------------|----------------------|
|------------------------|--------------------------|----------------------|
|------------------------|--------------------------|----------------------|
|------------------------|-1------------------------|----------------------|
|-------------------2--3-|----3--2----3--2~---------|-----------------2--3-|
|-3--2--0--3--2~---------|---------------------0--2-|-3--2--0--3--2~-------|
1. Within the blood stained walls in the
death is just the same.
2/3. When the orders are obeyed and
|-------------------------|-----------------------------------------------|
|-------------------------|-----------------------------------------------|
|-------------------------|-----------------------------------------------|
|--1-----------4----------|-4----4----5----------5------------------------|
|-----3--2--3--2----------|-2----2----3----0--0--3----0--0----------------|
|-------------------------|-----------------------------------------------|
center of your brain demons without mercy
you have been slayed you're lying on the ground without
|------------------------------|------------------------------------------|
|------------------------------|------------------------------------------|
|------------------------------|------------------------------------------|
|-4----4----2------------------|-4----4----5----------5-------------------|
|-2----2----0----3p2-----------|-2----2----3----0--0--3-------------------|
|---------------------5p3p2p0--|----------------------------0--0----------|
driving you insane. It will rip up your mind and
making a sound As your soul fades away you can
|-----------------------|-------------------------------------------------|
|-----------------------|-------------------------------------------------|
|-----------------------|-------------------------------------------------|
|--4--4----5------------|-------------------------------------------------|
|--2--2----3------------|-------------------------------------2--3--------|
|-----------------0--2--|--3--2--0--3--2~---------------------------------|
death you will find life is just a game and death is just the same
hear someone say ring the doomsday bell turn the world into hell.
|-----------------------|------------------------|-----------------------||
|-----------------------|------------------------|-----------------------||
|-----------------------|------------------------|----------------------*||
|-1---------------------|------------------------|-1--------------------*||
|----3--2--3--2~--------|------------------2--3--|----3--2---3--2--------||
|------------------0--2-|-3--2--0---3--2~--------|-----------------------||
|-19h20p19-17-------------------------------------8p7p5-------------------|
|-------------20-12h13p12-10---------------------------8p7p5/------------|
|------------------------------12----------------------------------------|
|-----------------------------------9h10p9-7------------------------------|
|--------------------------------------------xpx--------------------------|
|-------------------------------------------------------------------------|
1/2
|-15-14-12-11------------------------------------------|-------------------|
|-------------13-12-10---------------------------------|-------------------|
|----------------------12-11-9-8-----------------------|--4b~----rb4-------|
|--------------------------------10-9-7----------------|-------------------|
|---------------------------------------10-9p7-7h9p76-|-------------------|
|------------------------------------------------------|-------------------|
-------------------|------------------12p11-14p12-15p14-12------12--14----|
-------------------|---------13p12p10-----------------------15------------|
---------9p8-11p9--|-12p11p9----------------------------------------------|
--7-9-10-----------|------------------------------------------------------|
-------------------|------------------------------------------------------|
-------------------|------------------------------------------------------|
|-15/20p19p17-19------17----------------------------|----------------------|
|-----------------20-----19-20-17-19----17----------|----------------------|
|------------------------------------20----19-20-19-|-1716----16-17-------|
|---------------------------------------------------|-------19-------19----|
|---------------------------------------------------|----------------------|
|---------------------------------------------------|----------------------|
2
----------------------20b--|--rb20--19h20--17--19----17----|------------17-|
---------------------------|----------------------20----19-|20-17-19-20----|
---------------------------|-------------------------------|---------------|
--17p16--17-17~--p0--------|-------------------------------|---------------|
---------------------------|-------------------------------|---------------|
---------------------------|-------------------------------|---------------|
--20-19-17----19-17-------17-17----------------------|---------------------|
-----------20-------20-19-------20-19-17-20-19-17-16-|-19-17-16----17p16---|
-----------------------------------------------------|----------19---------|
-----------------------------------------------------|---------------------|
-----------------------------------------------------|---------------------|
-----------------------------------------------------|---------------------|
---------------------------------------------|-----------------------------|
----------17h18------------------------------|-----------------------------|
--x-16-16-------18-17-16-14-17-16-14------16-|-14-------14-----------------|
-------------------------------------17-x----|----17-16----17-16-14-17-16--|
---------------------------------------------|-----------------------------|
---------------------------------------------|-----------------------------|
1/2
------------|--20-17-----17-14h17p14--------11h14p11--------11------------|
------------|------------------------16--------------13--------x----------|
------------|--------20-----------------17--------------14--------14--x---|
--14-13b~---|-------------------------------------------------------------|
------------|-------------------------------------------------------------|
------------|-------------------------------------------------------------|
1/2 1/2
|-14-11-------11-8--------8-5------11-8-------|--11b----rb11----11b~~~~----|
|-------13-10------10p7------7-4--------10-7-|----------------------------|
|---------------------------------------------|----------------------------|
|---------------------------------------------|----------------------------|
|---------------------------------------------|----------------------------|
|---------------------------------------------|----------------------------|
--12-14-15p14p1211-|-14p12p11-----12p11----------------------------------|
--------------------|----------13--------13-12-10-------------------------|
--------------------|------------------------------12p11p9--12~----------|
--------------------|-----------------------------------------------------|
--------------------|-----------------------------------------------------|
--------------------|-----------------------------------------------------|
1 1/2
|-12p7------15p12-------19p15---------21bf--|-rb21--21bf----21b~----------|
|------8----------12----------17------------|-----------------------------|
|--------9-----------12----------16---------|-----------------------------|
|-------------------------------------------|-----------------------------|
|-------------------------------------------|-----------------------------|
|-------------------------------------------|-----------------------------|
|--15h19p15-t20p15~-----t19p15--|-t17p15p14-t17p15p14-t15p14p12-t15p14p12-|
|-------------------------------|------------------------------------------|
|-------------------------------|------------------------------------------|
|-------------------------------|------------------------------------------|
|-------------------------------|------------------------------------------|
|-------------------------------|------------------------------------------|
--10h12h14p12p108h10h12p10p8---------7h8p7p5------------------------------|
------------------------------12p10p8---------8p7p5---------8p7p5----------|
----------------------------------------------------8p7p54-------8p7p54--|
---------------------------------------------------------------------------|
---------------------------------------------------------------------------|
---------------------------------------------------------------------------|
1/2 release with bar
------------|-------------------------------------------------------------|
--5p4-------|----------------------4b-------------------------------------|
--------7---|--5p4p2---5p4p2----------------------------------------------|
------------|-----------------x-4-----------------------------------------|
------------|-------------------------------------------------------------|
------------|-------------------------------------------------------------|
Interlude
|---------------------|----------------|----------------------------------|
|---------------------|----------------|----------------------------------|
|---2-----------------|----------------|----------------------------------|
|---2-----------------|----------------|-----------3--2-------------------|
|---0-----3--2--------|----------------|--------2--------5--3--2----------|
|---------------5--3--|--1~------------|--0--4----------------------------|
|------------------------------|------------------|------------------------|
|------------------------------|------------------|------------------------|
|------------------------------|-2~------4h5p4-2--|-1-2-1---1--------------|
|------------------------3--5--|------------------|-------3---3-2-3-2-0-2-0|
|------------------------------|------------------|------------------------|
|--5--4--5--7--5--7--8~--------|------------------|------------------------|
| | | |
| | | |
|------------------------------|------------------|------------------------|
|------------------------------|------------------|------------------------|
|------------------------------|---------1h2p1----|------------------------|
|------------------------------|-3~------------3--|-2-3-2---2--------------|
|------------------------5--7--|------------------|-------5---5-3-5-3-2-3-2|
|--5--4--5--7--5--7--8~--------|------------------|------------------------|
|-------------------------------------------------|------------------------|
|-------------------------------------------------|------------------------|
|-------------------------------------------------|------------------------|
|-------------------------------------------------|------------------------|
|-2h3h5p3p2p0-2h3h5p3p2p0-2h3h5p3p2p0-2h3h5p3p2p0-|-2h3h5p3p2p0-7-x-3p2p0--|
|-------------------------------------------------|------------------------|
| |
| |
|-------------------------------------------------|------------------------|
|-------------------------------------------------|-0dive-w/bar--r0--------|
|-------------------------------------------------|------------------------|
|-------------------------------------------------|------------------------|
|-------------------------------------------------|------------------------|
|--5----------------------------------------------|------------------------|
|----------------------|
|----------------------|
|----------------------|
|----------x--x--x--x--|
|----------x--x--x--x--|
|-5p3p1p0--------------|
| |
| |
|----------------------|
|----------------------|
|----------------------|
|----------------------|
|----------------------|
|----------------------|
Guitar Solo
2
|---------------------------17h20-20p17-------|-20b--17----19----20p19--20-|
|---------------------17p13-------------17----|----------------------------|
|--------9-14p9-17p14----------------------17-|----------------------------|
|-----10--------------------------------------|----------------------------|
|-12------------------------------------------|----------------------------|
|---------------------------------------------|----------------------------|
1/2
|-----19--17----|--19b---rb19~----|-12h15-t17/19p15p12-----|----------------|
|---------------|-----------------|--------------------15--|--(15-----------|dive-w/bar
|---------------|-----------------|------------------------|----------------|
|---------------|-----------------|------------------------|----------------|
|---------------|-----------------|------------------------|----------------|
|---------------|-----------------|------------------------|----------------|
----------------------------12--16p15p13|h15p1312-12h13p12p10-------------|
--return(15)-1312~------13-------------|----------------------13p12p10----|
----------------------14----------------|----------------------------------|
----------------------------------------|----------------------------------|
----------------------------------------|----------------------------------|
----------------------------------------|----------------------------------|
--12h13p12p10------------------------------------------|-------------------|
--------------13p12p10------------13p12p10-------------|--10p9-------------|
-----------------------13p12p10px----------13p12p11p10|9------12-10p9-----|
-------------------------------------------------------|---------------12--|
-------------------------------------------------------|-------------------|
-------------------------------------------------------|-------------------|
-------------------------------|------------------------------------------|
-------------------------------|------------------------------------------|
--10p9-------------------------|------------------------------------------|
-------12-10p9h10p9------------|------------------------------------------|
--------------------12p11h12~--|------(12)~-------------------------------|
-------------------------------|------------------------------------------|
|---------|----------|------------|--0tr1-----------|---0tr1--------------|
|---------|----------|------------|-----------------|---------------------|
|------4/7|/9~-------|------------|-----------------|---------------------|
|----x----|----------|------------|-----------------|---------------------|
|--x------|----------|------------|-----------------|---------------------|
|---------|----------|------------|-----------------|---------------------|
|---0tr1------|---0tr1----|--------------------------|--------------------|
|-------------|-----------|--------------------------|--------------------|
|-------------|-----------|--4--4-4b-4b-4b-4b--%--%--|-4------------------|
|-------------|-----------|--------------------------|----7--6--3--2--0---|
|-------------|-----------|--------------------------|--------------------|
|-------------|-----------|--------------------------|--------------------|
| | | | |
| | | | |
|-------------|-----------|--------------------------|--------------------|
|-------------|-----------|--------------------------|--------------------|
|-------------|-----------|--------------------------|--------------------|
|-------------|-----------|--7-x-x-x-x-7-x-x-x-x-7-xx|-6--3--2------------|
|-------------|-----------|--------------------------|----------5--3--2---|
|-------------|-----------|--------------------------|--------------------|
(a)============================
|-------------------------------|----------------|------------------------|
|-------------------------------|----------------|------------------------|
|-4--4-4b-4b-4b-4b-4b-4b--%--%--|--4~--2--1--2~--|-repeat (a)-------------|
|-------------------------------|----------------|------------------------|
|-------------------------------|----------------|------------------------|
|-------------------------------|----------------|------------------------|
| | | |
|(b)=========================== | | |
|-------------------------------|----------------|------------------------|
|-------------------------------|----------------|------------------------|
|-------------------------------|----------------|------------------------|
|-7--x-x-x-x-7--x-x-x-x-7--x-x--|---6~--3--6--7~-|----repeat (b)----------|
|-------------------------------|----------------|------------------------|
|-------------------------------|----------------|------------------------|
|--------------------|--------------|-------------------------------------|
|--------------------|--------------|-------------------------------------|
|--4-----------------|--repeat (a)--|--4~--2--1--2~-----------------------|
|-----7--6--3--2--0--|--------------|-------------------------------------|
|--------------------|--------------|-------------------------------------|
|--------------------|--------------|-------------------------------------|
| | | |
| | | |
|--------------------|--------------|-------------------------------------|
|--------------------|--------------|-------------------------------------|
|--------------------|--------------|-------------------------------------|
|--6--3--2-----------|--repeat (b)--|--6~--3--6--7~-----------------------|
|-----------5--3--2--|--------------|-------------------------------------|
|--------------------|--------------|-------------------------------------|
|--------------------------------------------------------------------------|
|-12p10-t12p10p7-t13p10-t13p10p7-t16p10-t16p10p7-t13p10-t13p10p7-t12p10----|
|--------------------------------------------------------------------------|
|--------------------------------------------------------------------------|
|--------------------------------------------------------------------------|
|--------------------------------------------------------------------------|
--------------------------|-------------------------------------------------|
-t12p10p7-t13p10-t13p10p7-|-t16p10-t16p10p7-t17p10p7-t16p10-t16p10p7-t17p10-|
--------------------------|-------------------------------------------------|
--------------------------|-------------------------------------------------|
--------------------------|-------------------------------------------------|
--------------------------|-------------------------------------------------|
1/2
---------------------------------------|----------------------------------|
--t17p10p7-t19p10-t19p10p7-t10bf--t20--|-t20p10bf~~---x/19b--------------|
---------------------------------------|----------------------------------|
---------------------------------------|----------------------------------|
---------------------------------------|----------------------------------|
---------------------------------------|----------------------------------|
1/2
|--------------------17-19-20p19p17----19-|-17-------17--------------------|
|-19b---19--17-19-20----------------20----|----20-19----120-19-17-20-19-17-|
|-----------------------------------------|--------------------------------|
|-----------------------------------------|--------------------------------|
|-----------------------------------------|--------------------------------|
|-----------------------------------------|--------------------------------|
--------------------------------------------|--------------------------------|
--16-19-17-16-------19-17-16----------------|--------------------------------|
--------------17p16----------17p16----------|-16-----------------------------|
-----------------------------------19p17p16-|----19-17-1614-16-14-----------|
--------------------------------------------|----------------------17p15-14~-|
--------------------------------------------|--------------------------------|
1 1/2
--x/21b-----|-17-19-20-19-17------------------------------------------------|
------------|----------------20-19-17---------------------------------------|
------------|-------------------------20-19-17-16---------------------------|
------------|-------------------------------------19p17p16------------------|
------------|----------------------------------------------19-18-18h19p18h19|
------------|---------------------------------------------------------------|
|------------------------------------------------15-19h20p19p17-|--19~~----|
|---------------------------------------16h17h19----------------|----------|
|---------------------16h17p16-16h17h19-------------------------|----------|
|------16h17p16h17h19-------------------------------------------|----------|
|-p18-----------------------------------------------------------|----------|
|---------------------------------------------------------------|----------|
-------------------x/20---|-19p17h19----17---------------------------------|
----20p19p1716-----------|----------20----20p19p17--16h17h19p17p16--------|
--------------------------|-----------------------------------------17p16~-|
--------------------------|------------------------------------------------|
--------------------------|------------------------------------------------|
--------------------------|------------------------------------------------|
|----------17-19-20-19-17----19-17-------17----------------|----------------|
|-17-19-20----------------20-------20-19----20-19-17-20-19-|-1716-19-17-16-|
|----------------------------------------------------------|----------------|
|----------------------------------------------------------|----------------|
|----------------------------------------------------------|----------------|
|----------------------------------------------------------|----------------|
-------------------------------------------------|--------------------------|
----17-16----------16----------------------------|--------------------------|
-17-------17p16h17----17p16----17-16-------16----|--------------------------|
----------------------------19-------19-17----19-|-17p16--19-17p1614-17p16-|
-------------------------------------------------|--------------------------|
-------------------------------------------------|--------------------------|
-----------------------15p12--------19p15--------20p|19p17----19p17--------|
---------------17p12---------12-----------17--------|------20-------20p19h-|
---------------------x----------x------------16-----|----------------------|
--p14-17p16px---------------------------------------|----------------------|
----------------------------------------------------|----------------------|
----------------------------------------------------|----------------------|
1 1/2 1 1/2 1 1/2
-----17-----------21b----21b----21b---|-20bf---21bf~-----------20bf-------|
--20----20p19p17----------------------|-----------------------------------|
--------------------------------------|-----------------------------------|
--------------------------------------|-----------------------------------|
--------------------------------------|-----------------------------------|
--------------------------------------|-----------------------------------|
|--20bf--rb20---19h20--17h20-15h20-14h20-12h20-|----------17-19p15---------|
|----------------------------------------------|-16-17-19----------19-17---|
|----------------------------------------------|---------------------------|
|----------------------------------------------|---------------------------|
|----------------------------------------------|---------------------------|
|----------------------------------------------|---------------------------|
---------------|---------------------------------------5h7h8p7p5----------|
---------------|----------------------------------------------------------|
-16-14bf~--14--|--14p1211---------11h12p11----11~------------------------|
---------------|-----------14p12px----------14----------------------------|
---------------|----------------------------------------------------------|
---------------|----------------------------------------------------------|
----------------------------------------|
--8-7-5-4-------------------------------|
----------7-5-4-------------------------|
----------------7-5-4-------------------|
----------------------7-6--3p2p0--------|
---------------------------------3p2p0--|
|----------------------|----------------------------|---------------------|
|----------------------|----------------------------|---------------------|
|--2-------------------|----------------------------|---------------------|
|--2-------------------|----------------------------|-------3-2-----------|
|--0-------3--2--------|-------------------------x-|-----2-----5-3-2-----|
|----------------5--3--|-1-1-1-1-1-1-1-1-1-1-1-1/---|-0-4-----------------|
|------------------------------|------------------|------------------------|
|------------------------------|------------------|------------------------|
|------------------------------|-2~------4h5p4-2--|-1-2-1---1------4h5p4-2-|
|------------------------3--5--|------------------|-------3---3-2----------|
|------------------------------|------------------|------------------------|
|--5--4--5--7--5--7--8~--------|------------------|------------------------|
| | | |
| | | |
|------------------------------|------------------|------------------------|
|------------------------------|------------------|------------------------|
|------------------------------|---------1h2p1----|----------------1h2p1---|
|------------------------------|-3~------------3--|-2-3-2---2------------3-|
|------------------------5--7--|------------------|-------5---5-3----------|
|--5--4--5--7--5--7--8~--------|------------------|------------------------|
|------------------------|------------------------|------------------------|
|------------------------|------------------------|------------------------|
|-1-2-1---1------4h5p4-2-|-1-2-1---1--------------|------------------------|
|-------3---3-2----------|-------3---3-2-3-2---2--|------------------------|
|------------------------|-------------------5---5|-3----------------------|
|------------------------|------------------------|------------------------|
| | | |
| | | |
|------------------------|------------------------|------------------------|
|------------------------|------------------------|------------------------|
|----------------1h2p1---|------------------------|------------------------|
|-2-3-2---2------------3-|-2-3-2---2--------------|------------------------|
|-------5---5-3----------|-------5---5-3-5-3-2-3-2|------------------------|
|------------------------|------------------------|-5----------------------|
=======================================================================
h = hammeron Judy Letostak
p = pulloff Internet [email protected]
/ = slide Fidonet 1:202/762
x = ghost note MetalNet 666:666/2
t = tap (right hand) The Music Shop BBS (619)423-4970 24hrs
~ = vibrato
bf = bend full
rb = release bend
dive = dive with bar
========================================================================
The Music Shop BBS (619)423-4970
Guitar Tab, Bass Tab, Sound files, Guitar Lessons, Lyrics, Music programs
Sound players, pictures, graphic viewers...
...LORD...BRE...Fidonet...MetalNet...TradeWars...IronOx
In a band? I have a file area for bands, send me your lyrics, pictures,
biographies...Anything, all styles of music welcome, any location. I have
access to a color scanner, send sase to get the picture back. Email me
for my snail mail address. Can be sent via email or FidoNet pictures can
be decoded, please use pkzip (2.04g) for sound files, these can be encoded
also.




Ваше мнение



Капча