Yngwie Malmsteen - Leviathan
from Fire and Ice
Judy Letostak ([email protected])
Tune down 1/2 step
Listen to the recording for the right structure of the parts. He goes
back and forth and repeats some sections. It's just repeating a theme
then playing ending 1 then repeating the theme then to ending 2 or
something like that.
|--------15-20-15----------x-15--------------|--x-11p10-------------------|
|-----16----------16----16------18bf~--------|-----------11---------------|
|--17----------------17----------------------|---------------12~----------|
|--------------------------------------------|----------------------------|
|--------------------------------------------|----------------------------|
|--------------------------------------------|----------------------------|
|----------------------------------------------------13h15p13p11-13p11-----
|----------------------------------------------13-14-----------------------
|----------13h15p13-12----------------12h13h15-----------------------------
|-12-13-15-------------15-13-12h13h15--------------------------------------
|--------------------------------------------------------------------------
|--------------------------------------------------------------------------
-----------------------------------------|-----------------------------|---
--15p13----------------------------------|-15-11-----------------------|---
-------------12h13p12p10----------10h12--|-------10~--8-10/12\10p8\7---|---
-------------------------13p12h13--------|---------------------------8/|10-
---------11------------------------------|-----------------------------|---
-----------------------------------------|-----------------------------|---
---------|------------|------10h11p10h11p8h10-10h11p8-------|-------------|
---------|------------|---x---------------------------8\6---|-------------|
---------|------------|-----------------------------------8\|12-10-10~----|
---------|------------|-------------------------------------|-------------|
---/10---|------------|-------------------------------------|-------------|
---------|---8~~~-----|-------------------------------------|-------------|
|----------13h15h16p15p13-11-10-8\-6-4-3-1--------------------------------|
|-13h15h16---------------------------------4-3-1--------------------------|
|-------------------------------------------------------------------------|
|-------------------------------------------------------------------------|
|-------------------------------------------------13/15/17----------------|
|-------------------------------------------------------------------------|
slapback from digital delay
|---------------------------|----------------|----------------------------|
|---------------------------|----------------|----------------------------|
|---------------------------|----------------|----------------------------|
|---------------------------|----------------|----------------------------|
|----x\------x\------x\-----|--x\------x\----|-----x\---------------------|
|---------------------------|----------------|----------------------------|
|---------------|------------------------------------|---------------------
|---------------|------------------------------------|---------------------
|---------------|------------------------------------|---------------------
|---------------|------------------------------------|---------------------
|---------------|----------3-----2-----------------3-|----2----------------
|--3--8\6\4\3\--|-1--3--4-----4-----3--4--1--3--4----|-4-----3--4--1--3--4-
----------------|------------------------------------|---------------------
----------------|------------------------------------|---------------------
----------------|------------------------------------|---------------------
----------------|------------------------------------|---------------------
--3-----2-------|----------3-----2-----------------3-|----2----------------
-----4-----3~---|-1--3--4-----4-----3--4--1--3--4----|-4-----3--4--1--3--4-
----------------|------------------------------------|---------------------
----------------|------------------------------------|---------------------
----------------|----------5-----4-----------------5-|-4-----------------5-
----------------|-3--5--6-----6-----5--6--3--5--6----|----5--6--3--5--6----
--3-----2-------|------------------------------------|---------------------
-----4-----3~---|------------------------------------|---------------------
-------------|-------------------------------------|-----------------------
-------------|-------------------------------------|-----------------------
-----4-------|----------5-----4-----------------5--|----4-----------------5
--6-----5~---|-3--5--6-----6-----5--6--3--5--6-----|-6-----5--6--3--5--6---
-------------|-------------------------------------|-----------------------
-------------|-------------------------------------|-----------------------
--------------|-----------------|-------------------------------|----------
--------------|-----------------|-------------------------------|----------
-----4--------|-----------------|-------------------------------|----------
--6-----5-----|-----------------|-------------------------------|----------
-----------5--|---5-------------|-------------------------------|----------
-----------3--|---3-------------|-3--3--3--3--3--3--3--3--3--3--|-4--4--4--
-----------------------------|---------------------------------------------
-----------------------------|---------------------------------------------
-----------------------------|---------------------------------------------
-----------------------------|---------------------------------------------
-----------------------------|---------------------------------------------
--4--4--4--4--4--4--4--4--4--|-4--4--4--4--4--4--4--4--4--4--4--4--4--4--4-
-----|-------------------------------------------------|-------------------
-----|-------------------------------------------------|-------------------
-----|-------------------------------------------------|-------------------
-----|-------------------------------------------------|-------------------
-----|-------------------------------------------------|----4--------------
--4--|-1--1--1--1--1--1--1--1--1--1--1--1--1--1--1--1--|-1-----1--1--1--1--
--------------------|-----------------------------------------------------|
--------------------|-----------------------------------------------------|
--------------------|-----------------------------------------------------|
--------------------|-----------------------------------------------------|
-----4--------------|-----------------------------------------------------|
--1-----1--1--1--1--|-3--3--3--3--3--3--3--3--3--3--3--3--3--3--3--3------|
|----------------------------------|
|----------------------------------|
|----------------------------------|
|----------------------------------|
|--/10----10~----3--2-----2--------|
|----------------------4-----4--3--|
|---------------|-15-19-15-19-15-15--------|-23bf--rb23bf~---|
|-18bf~---rb18--|-------------------18bf~--|-----------------|
|---------------|--------------------------|-----------------|
|---------------|--------------------------|-----------------|
|---------------|--------------------------|-----------------|
|---------------|--------------------------|-----------------|
|--23bf---rb23----|----------------------|----------8~--------------------|
|-----------------|--16bf~---------------|--11bf--------------------------|
|-----------------|--------------1-------|--------------------------------|
|-----------------|--------------0-------|--------------------------------|
|-----------------|----------------------|--------------------------------|
|-----------------|----------------------|--------------------------------|
|-15---15-15-15-15-15-15-15-15-15-15-15-15-15-15-15-15--15-15-15-15-15-15-|
|-------------------------------------------------------------------------|
|-------------------------------------------------------------------------|
|-------------------------------------------------------------------------|
|-------------------------------------------------------------------------|
|-------------------------------------------------------------------------|
|--15-15-16p15p13---------------------------------------------------------|
|-----------------16-15--13-----------------------------------------------|
|----------------------------12-12-x--15~---------------------------------|
|-------------------------------------------------------------------------|
|-------------------------------------------------------------------------|
|-------------------------------------------------------------------------|
|------------------------------------|------------------------------------|
|------------------------------------|------------------------------------|
|------------------------------------|------------------------------------|
|------------------------------------|------------------------------------|
|----------3-----2-----------------3-|----2-----------------3-----2-------|
|-1--3--4-----4-----3--4--1--3--4----|-4-----3--4--1--3--4-----4-----3~~--|
|------------------------------------|------------------------------------|
|------------------------------------|------------------------------------|
|------------------------------------|------------------------------------|
|------------------------------------|------------------------------------|
|----------3-----2-----------------3-|----2-----------------3-----2-------|
|-1--3--4-----4-----3--4--1--3--4----|-4-----3--4--1--3--4-----4-----3----|
1/2
|-16-20-19-20-15-20-19-20----20-19-20-----19-20--|----18-18-18-------------
|-------------------------18----------16---------|-15----------13-15b------
|------------------------------------------------|-------------------------
|------------------------------------------------|-------------------------
|------------------------------------------------|-------------------------
|------------------------------------------------|-------------------------
1/2 1/2
-----------------------------|-------------------|------------13----------|
--13\11~----13~----15~-------|--15b------rb15----|--15b~------------------|
--------------------------0--|-------------------|--------------15-15-----|
-----------------------------|-------------------|------------------------|
-----------------------------|-------------------|------------------------|
-----------------------------|-------------------|------------------------|
|-13-15-16-15-13-15-13----13-------------------------------|---------------
|----------------------16----16-13\12----------13p12-13p12-|---------------
|-------------------------------------16-13p12-------------|-15-13-12-13-12
|----------------------------------------------------------|---------------
|----------------------------------------------------------|---------------
|----------------------------------------------------------|---------------
1/2
----------------------15b----|--rb15p13h15~w/bar--|----x--16bf------------|
-----------------------------|--------------------|-----------------------|
----------------13-15--------|--------------------|-----------------------|
-15-13-12-13-15--------------|--------------------|-----------------------|
-----------------------------|--------------------|-----------------------|
-----------------------------|--------------------|-----------------------|
|---16bfp15--16~---|-20-18-------18-16------------------------|---15-19-15-
|------------16~---|-------20-20-------20-18-20-18-16-18p16---|16----------
|------------------|----------------------------------------17|------------
|------------------|------------------------------------------|------------
|------------------|------------------------------------------|------------
|------------------|------------------------------------------|------------
----------------------|-----------------------------|---------------------|
----------------------|-------8-9p8--------8--------|---------------------|
----------------------|-----8--------10p8-----10p8\7|10p8p7----8p7--------|
--/15p13h15p13p12~~---|--10-------------------------|-------10------10~---|
----------------------|-----------------------------|---------------------|
----------------------|-----------------------------|---------------------|
1/2
|------------------|----------------|--------------------------------------
|------------------|----------------|--------------------------------------
|----8-------------|----------------|----------------------------10h12h13--
|----8h10/12b------|--rb12p10-------|-----------------8/10-12-13-----------
|------------------|----------10~---|---------8-10-11----------------------
|------------------|----------------|-8-10-11------------------------------
--11-13-11-13-15-11--|-13-15/16-13-14-16/18-15-16-18bf~---|-rb18--13------|
---------------------|------------------------------------|-------13------|
---------------------|------------------------------------|-------10------|
---------------------|------------------------------------|-------10------|
---------------------|------------------------------------|---------------|
---------------------|------------------------------------|---------------|
|-15p11-----11-15--------15-11----------11-|-16p13-------------13----------
|-------13------------13-------13----13----|-------15-------15----15----12-
|------------------12-------------12-------|----------16-13----------12----
|------------------------------------------|-------------------------------
|------------------------------------------|-------------------------------
|------------------------------------------|-------------------------------
---------------------------|-11----------11-13/16-15h16p15-13----16----16-|
--15----12-15--------------|----13----13----------------------16----15----|
-----12--------13p10h13p10-|-------12-------------------------------------|
---------------------------|----------------------------------------------|
---------------------------|----------------------------------------------|
---------------------------|----------------------------------------------|
|----16---------------8--|-11p8-----8-11/16------15/20bf----rb20----------|
|-13-----12~--------8----|------------------------------------------------|
|-----------------8------|-------8-----------13---------------------------|
|------------------------|------------------------------------------------|
|------------------------|------------------------------------------------|
|------------------------|------------------------------------------------|
|--15-16----16----16----16------16--------15--|--------------------15-19---
|--------18----16----15----------------15-----|-16h18p16-15-----16---------
|---------------------------17------16--------|--------------17------------
|---------------------------------------------|----------------------------
|---------------------------------------------|----------------------------
|---------------------------------------------|----------------------------
1 1/2
------20bf---|-rb20\-15-14-13-11----------------------|--------------------
--18---------|-------------------15-13-12-11----------|--------------------
-------------|-------------------------------13-12-10-|--------------------
-------------|----------------------------------------|-13-12-10b----rb10--
-------------|----------------------------------------|--------------------
-------------|----------------------------------------|--------------------
----------|--------------------|------|-----------------------------|------
-------8--|--13bf----16-----16\|9-----|-----8-9p8------8------------|------
---7-8----|--------------------|------|--10-------10p8---10p8p7-10p8|p7----
----------|----------13--------|------|-----------------------------|---10-
----------|--------------------|------|-----------------------------|------
----------|--------------------|------|-----------------------------|------
----------------|----------------------------------|-----------------------
----------------|----------------------------------|-11-11-11-11-13-13-13--
--8-7-----------|--7-7-7-7-8-8-8-10-10-10/12-12-12-|-----------------------
------10-8-10~--|----------------------------------|-----------------------
----------------|----------------------------------|-----------------------
----------------|----------------------------------|-----------------------
1/2
--------------------------------|------------20~------|-21~------------12b-|
--13--15-15-15/16-16-16/18-18-18|20-20-20-20----------|----------12h14-----|
--------------------------------|---------------------|-------13-----------|
--------------------------------|---------------------|--------------------|
--------------------------------|---------------------|--------------------|
--------------------------------|---------------------|--------------------|
1/2 1/2
|--h13b---12b---------|-------------------------|--------------------------|
|---------------15~---|-------------------------|--------------------------|
|---------------------|---9bf~---8bf--p6---6~---|--8bf---8--6--8------6----|
|---------------------|------------------8------|-----------6--8--6h8---8--|
|---------------------|-------------------------|--------------------------|
|---------------------|-------------------------|--------------------------|
|-----12p9----------9-12p9-14p9-|-12p9----------9-12p9-10-11bf-rb11bf-----|
|----------10----10-------------|------10----10---------------------------|
|--6----------10----------------|---------10------------------------------|
|-------------------------------|-----------------------------------------|
|-------------------------------|-----------------------------------------|
|-------------------------------|-----------------------------------------|
|--rb11---9--11p9~/--21--21--21---|-21~~~~21~~~~~~~~~~~~~~~~~~21----------|
|--------------------19--19--19---|---------------------------------------|
|---------------------------------|---------------------------------------|
|---------------------------------|---------------------------------------|
|---------------------------------|---------------------------------------|
|---------------------------------|---------------------------------------|
|-23bf---23bf---21~---|--------18h21p18-------18--------|-------18---------
|---------------------|--18h21----------21p18----21p18--|----------21-18---
|---------------------|---------------------------------|-20bf-------------
|---------------------|---------------------------------|------------------
|---------------------|---------------------------------|------------------
|---------------------|---------------------------------|------------------
1/2 1/2
-------------------------------|------------------------------------------|
-------------------------------|--21p18-----------------------------------|
--20bf---20b---20-19----19h20--|---------20b--20-19----19~~~----\---------|
---------------------20--------|--------------------20--------------------|
-------------------------------|------------------------------------------|
-------------------------------|------------------------------------------|
|--12--12p9-----------------|---12--12p9----------------|--------------16--
|------------10-------------|-------------10------------|--18p14h18p14-----
|----------------9~~~-------|-----------------9~---9----|------------------
|---------------------------|---------------------------|------------------
|---------------------------|---------------------------|------------------
|---------------------------|---------------------------|------------------
--------16--------16------------16|/21~~----------------|-----------------|
--18p14-----14h18-----18p14p10----|---------------------|-----------------|
----------------------------------|---------------------|-----------------|
----------------------------------|---------------------|-----------------|
----------------------------------|----------------5----|--5--------5-----|
----------------------------------|----------------3----|--3--------3-----|
|--/17p15p13------------------------------------------|----------|---x----|
|-------------16p15p13p12-----------------------------|----------|--------|
|--------------------------15-13-12-------------------|----------|--------|
|------------------------------------15-12------------|----------|--------|
|-------------------------------------------15-14~----|---14/17--|--------|
|-----------------------------------------------------|----------|--------|
p.s.
|---------13~~~-----------------13~~~~~----|-----x\-----------------------|
|--16bf-----------------16bf---------------|-----x\-----------------------|
|------------------------------------------|----------------------------4h|
|------------------------------------------|------------------------------|
|------------------------------------------|------------------------------|
|------------------------------------------|------------------------------|
|--------------------------------|-------------------/15-15---------------|
|------------------------------6-|----------------------------------------|
|-5p4---4-7p5p4----p7p5p4----4---|--4-----/12-10--------------------------|
|-----6----------6---------6-----|-----6----------------------------------|
|--------------------------------|----------------------------------------|
|--------------------------------|----------------------------------------|
|--16p15p13---15p13----------/22-19----22-19-------|--19-----------16------
|-------------------16p15p13--------21-------21----|-----21-----------18---
|-----------------------------------------------22-|--------22-19----------
|--------------------------------------------------|-----------------------
|--------------------------------------------------|-----------------------
|--------------------------------------------------|-----------------------
---------------------------------------------|-----------------------------
--------18-16--------16----------16-18/21-21-|-21-21-21-21-21-21-21-21-21--
--19p16--------19-17----19-17-19-------------|-----------------------------
---------------------------------------------|-----------------------------
---------------------------------------------|-----------------------------
---------------------------------------------|-----------------------------
1/2 1/2
-------------------|--------------------------|-20b~~~~-------------------|
-21-21-21~~~~~~~---|----------20b----rb20p18--|---------------------------|
-------------------|----x---------------------|---------------------------|
-------------------|----x---------------------|---------------------------|
-------------------|--------------------------|---------------------------|
-------------------|--------------------------|---------------------------|
1/2
|--21b---rb20--23bf---rb23---|--22~-----------22----------------|----------
|----------------------------|-------24p21-24----21-21-24-------|-21-------
|----------------------------|----------------------------22-22-|----19----
|----------------------------|----------------------------------|----------
|----------------------------|----------------------------------|----------
|----------------------------|----------------------------------|----------
----------------------------------------------------|
--18h20h21p20p18------------------------------------|
-----------------20-19-17-16------------------------|
-----------------------------20-18-17---------------|
--------------------------------------20-18-17------|
-----------------------------------------------18~--|
Repeat 3x
||------------------------------------|------------------------------------||
||------------------------------------|------------------------------------||
||------------------------------------|------------------------------------||
||------------------------------------|------------------------------------||
||---------3-----2-----------------3--|----2-----------------3-----2-------||
||1--3--4-----4-----3--4--1--3--4-----|-4-----3--4--1--3--4-----4-----3--3-||
|-------------------------------------|------------------------------------
|-------------------------------------|------------------------------------
|-------------------------------------|------------------------------------
|-------------------------------------|------------------------------------
|----------3-----2-----------------3--|----2-----------------3-----2-------
|-1--3--4-----4-----3--4--1--3--4-----|-4-----3--4--1--3--4-----4-----3----
-----------|------------------|-------------------------------------------|
-----------|------------------|-------------------------------------------|
-----------|------------------|-------------------------------------------|
-----------|------------------|-------------------------------------------|
---5---5---|-------5----------|-------------------------------------------|
---3---3---|-------3----------|-------------------------------------------|
1/2
||-----13bf---rb13~----|-----------------|--------------------------------|
||---------------------|----15b----------|---rb15~------------------------|
||o--------------------|-----------------|--------------------------------|
||o--------------------|-----------------|--------------------------------|
||---------------------|-----------------|--------------------------------|
||---------------------|-----------------|--------------------------------|
|---------------------|---------------------------------------------------|
|---13bf-----rb13-----|--11tr13~---------------------13h15~---------------|
|---------------------|---------------------------------------------------|
|---------------------|---------------------------------------------------|
|---------------------|---------------------------------------------------|
|---------------------|---------------------------------------------------|
|------------|--15h16p15p13-15-15~-----|-13-11-----------------------------||
|--p13-------|-------------------------|-------15-13-12--------------------||
|------------|-------------------------|----------------13----13-12-13-13~-||
|------------|-------------------------|-------------------15--------------||
|------------|-------------------------|-----------------------------------||
|------------|-------------------------|-----------------------------------||
=======================================================================
h = hammeron Judy Letostak
p = pulloff Internet [email protected]
/\ = slide Fidonet 1:202/762
x = ghost note MetalNet 666:666/2
t = tap (right hand) The Music Shop BBS (619)423-4970 24hrs
~ = vibrato
bf = bend full tr = trill
rb = release bend p.s. = pick scrape
dive = dive with bar b = bend / step written over note
========================================================================
The Music Shop BBS (619)423-4970 24hrs
Guitar Tab, Bass Tab, Lyrics, Sound Files, Pictures, BRE...LORD...FidoNet...
MetalNet...In a band? Want some exposure? I have a file area for bands
will take anything that can be put on a computer...Lyrics, pictures, sound
files, gig ads...email me or call my bbs. It's free, and access is free.
Liar Tab by Malmsteen Yngwie
A:hover { COLOR: #EF0000; TEXT-DECORATION: underline }
.content {FONT-SIZE: 11px; COLOR: #686468; font-family: Verdana, Arial, Helvetica}
BODY {font-family: Verdana, Arial, Helvetica }
Buy: Malmsteen Yngwie Sheet Music, Malmsteen Yngwie Music or Buy Posters
Home : M : Malmsteen Yngwie Tabs : Liar Tab
Current Rating: (5 / 5)

 

HOW CORRECT IS THIS TAB?
worse better
From: [email protected] (Judy Letostak)
Yngwie Malmsteen "Liar"
from Trilogy
[email protected]
fig 1
|--------------------|--------------------|--------------------------------|
|--------------------|--------------------|--------------------------------|
|--9~--7--5~--7--9~--|--10~--9~--7--9--7--|------9~---7---5~---7-------9---|
|--------------------|--------------------|--------------------------------|
|--------------------|--------------------|--------------------------------|
|--------------------|--------------------|--------------------------------|
| | | |
| | | |
|--------------------|--------------------|--------------------------------|
|--------------------|--------------------|--------------------------------|
|--5~--4--2~--4--5~--|---7---5---4--5--4--|-------5~---4---2~---4-------5--|
|--------------------|--------------------|--------------------------------|
|--------------------|--------------------|--------------------------------|
|--------------------|--------------------|--------------------------------|
|-----------------|------------------------------|-------------------------|
|-----------------|------------------------------|-------------------------|
|-10~---11---13~--|----9~-----7~----5----7---9~--|-10~--9~--7---9----7~----|
|-----------------|------------------------------|-------------------------|
|-----------------|------------------------------|-------------------------|
|-----------------|------------------------------|-------------------------|
| | | |
| | | |
|-----------------|------------------------------|-------------------------|
|-----------------|------------------------------|-------------------------|
|--7~----8----9~--|----5~-----4~----2----4---5~--|--7---5---4---5----7~----|
|-----------------|------------------------------|-------------------------|
|-----------------|------------------------------|-------------------------|
|-----------------|------------------------------|-------------------------|
|------------------------|------------------|------------------------------|
|------------------------|------------------|------------------------------|
|--9~--7~---5---7----9---|-10~---11----13---|------17~---------(17~)-------|
|------------------------|------------------|------------------------------|
|------------------------|------------------|------------------------------|
|------------------------|------------------|------------------------------|
| | | |
| | | |
|------------------------|------------------|------------------------------|
|------------------------|------------------|------------------------------|
|--5~--4~---2---4----5---|---7~---8-----9---|------14~---------(14~)-------|
|------------------------|------------------|------------------------------|
|------------------------|------------------|------------------------------|
|------------------------|------------------|------------------------------|
Verse
You came to me...
|-------------------------------|----------------------------------|
|-------------------------------|----------------------------------|
|-------------------------------|----------------------------------|
|-9-----------------------------|----------------------------------|
|-7-2-2-2-2-2-2-2-2-2-2-2-2-2-2-|-2-2-2-2-2-2-2-2-2-2-2-2-2-2-2-2--|
|-x-0-0-0-0-0-0-0-0-0-0-0-0-0-0-|-0-0-0-0-0-0-0-0-0-0-0-0-0-0-0-0--|
|---------------------------------|13-10-12-13-12-10------------------------
|---------------------------------|------------------12-9-10-12-10-9--------
|---------------------------------|----------------------------------10-7-9-
|---------------------------------|-----------------------------------------
|-2-2-2-2-2-2-2-2-2-2-2-2-2-2-2-2-|-----------------------------------------
|-0-0-0-0-0-0-0-0-0-0-0-0-0-0-0-0-|-----------------------------------------
--------------------|-----------------------------|-------------------------
--------------------|-----------------------------|-------------------------
10-9-7--------------|-----------------------------|-------------------------
-------9-6-7-9-7-6--|-----------------------------|-------------------------
--------------------|-7~--7-7-7-7-7-7-7-7-7-7-7-7-|2-2-2-2-2-2-2-2-2-2-2-2-2
--------------------|-----0-0-0-0-0-0-0-0-0-0-0-0-|0-0-0-0-0-0-0-0-0-0-0-0-0
---------|13-10-12-13-12-10------------------------------------------------|
---------|------------------12-9-10-12-10-9--------------------------------|
---------|----------------------------------10-7-9-------------------------|
---------|-----------------------------------------10-9-7------------------|
2-2-2-2--|------------------------------------------------9-6-7-9-7-6------|
0-0-0-0--|-----------------------------------------------------------------|
Chorus
You can't fight...
|--------------------------------|-----------------------------------------|
|--------------------------------|-----------------------------------------|
|--------------------------------|-----------------------------------------|
|7--7-7-7-7-7-7-7-7-7-7-7-7-7-7--|-7-7-7-7-7-7-7-7-7-7-7-7-7-7-7-7-7-------|
|5--5-5-5-5-5-5-5-5-5-5-5-5-5-5--|-5-5-5-5-5-5-5-5-5-5-5-5-5-5-5-5-5-------|
|--------------------------------|-----------------------------------------|
|---------------------------------|----------------------------------------|
|---------------------------------|----------------------------------------|
|-------------------------------5-|------5---5-----------------------------|
|-7-7-7-7-7-7-7-7-7-7-7-7-7-7-7-3-|------3---3--3--2--0--5-------------5---|
|-5-5-5-5-5-5-5-5-5-5-5-5-5-5-5---|----------------------3-------5--5--5---|
|---------------------------------|----------------------------------------|
|--------------------------------|-----------------------------------------|
|--------------------------------|-----------------------------------------|
|--------------------------------|-----------------------------------------|
|7--7-7-7-7-7-7-7-7-7-7-7-7-7-7--|-7-7-7-7-7-7-7-7-7-7-7-7-7-7-7-7-7-------|
|5--5-5-5-5-5-5-5-5-5-5-5-5-5-5--|-5-5-5-5-5-5-5-5-5-5-5-5-5-5-5-5-5-------|
|--------------------------------|-----------------------------------------|
|---------------------------------|----------------------------------------|
|---------------------------------|----------------------------------------|
|-------------------------------5-|------5---5--x--------------------------|
|-7-7-7-7-7-7-7-7-7-7-7-7-7-7-7-3-|------3---3--3--2--0--5-----------------|
|-5-5-5-5-5-5-5-5-5-5-5-5-5-5-5---|----------------------3-----3--5--7--3--|
|---------------------------------|----------------------------------------|
Repeat fig 1 (Intro)
Interlude
|7p4-------4-10p7--------7-12p8---------8s17p12----------12s|7p4-------4----
|----6---6--------9----9--------10---10---------13----13----|----6---6------
|------7------------10-------------9---------------14-------|------7--------
|-----------------------------------------------------------|---------------
|-----------------------------------------------------------|---------------
|-----------------------------------------------------------|---------------
10p7--------7-12p8---------8s17p12----------12|12p9----------9-13p10--------
-----9----9--------10---10---------13----13---|-----10----10---------10-----
-------10-------------9---------------14------|--------12---------------10--
----------------------------------------------|-----------------------------
----------------------------------------------|-----------------------------
----------------------------------------------|-----------------------------
---10s7-10p7-------7-12p8-------8|10p6-------6-8p5-------5s4h7p4-----4s5---|
10-----------8---8--------8---8--|-----6---6-------5---5---------5---------|
---------------7------------9----|-------7-----------5-------------7-------|
---------------------------------|-----------------------------------------|
---------------------------------|-----------------------------------------|
---------------------------------|-----------------------------------------|
|7p4-------4-10p7--------7-12p8---------8s17p12-----------12|s7p4-------4---
|----6---6--------9----9--------10---10---------13----13----|-----6---6-----
|------7------------10-------------9---------------14-------|-------7-------
|-----------------------------------------------------------|---------------
|-----------------------------------------------------------|---------------
|-----------------------------------------------------------|---------------
10p7--------7-12p8---------8s17p12----------12|12p9----------9-13p10--------
-----9----9--------10---10---------13----13---|-----10----10---------10-----
-------10-------------9---------------14------|--------12---------------10--
----------------------------------------------|-----------------------------
----------------------------------------------|-----------------------------
----------------------------------------------|-----------------------------
---10s7-10p7-------7-12p8-------8|10p6-------6-8p5-------5s4h7p4-----4s5---|
10-----------8---8--------8---8--|-----6---6-------5---5---------5-------10|
---------------7------------9----|-------7-----------5-------------7-------|
---------------------------------|-----------------------------------------|
---------------------------------|-----------------------------------------|
---------------------------------|-----------------------------------------|
|-------16p14p12----------17p16p14---------|19p16----------19s21~-----------
|-17~------------16-14-12----------17-16-14|------19-17-16--------------17--
|------------------------------------------|----------------------18-18-----
|------------------------------------------|--------------------------------
|------------------------------------------|--------------------------------
|------------------------------------------|--------------------------------
16-21p16----------19p17p16-|---------16h17p16p14----------------------------
---------17----16----------|19p17p16-------------17p16p14----------16h17p16-
------------18-------------|------------------------------17p16p14----------
---------------------------|------------------------------------------------
---------------------------|------------------------------------------------
---------------------------|------------------------------------------------
-------------------------------------------------------|--------------------
p14s13----------12-14p13p12----------------------------|--------------------
-------14p13h14-------------14p13-11-14p13p11----11h13p|11-------11---------
----------------------------------------------14-------|---14-13----14-13---
-------------------------------------------------------|--------------------
-------------------------------------------------------|--------------------
1 1/2
-------------------------------------14-16-17p16-14------------21b---------|
----------------------------14-16-17----------------17-16-14-0-------------|
----------------11-13-14s16------------------------------------------------|
-11----11-13-14------------------------------------------------------------|
----14---------------------------------------------------------------------|
---------------------------------------------------------------------------|
|-(21)~------21bfr-----|19-21-17-21-16-21----21----------17-21-19-17----19--
|----------------------|------------------19----17-19-21-------------21-----
|----------------------|----------------------------------------------------
|----------------------|----------------------------------------------------
|----------------------|----------------------------------------------------
|----------------------|----------------------------------------------------
17----------17----16----|--------------------------------------------------|
---21-19-------19----17-|-19p17p16-17p16-17-17~----5s7bfr------------7-5---|
------------------------|--------------------------------------------------|
------------------------|--------------------------------------------------|
------------------------|--------------------------------------------------|
------------------------|--------------------------------------------------|
|--------------------------------------------------------------------------|
|9-10-7-9-5-10p7-9p5-10p7-9p5-10p7-9s5-7p5p7---5---4-----------------------|
|--------------------------------------------6---6---4-6bf~r---------------|
|--------------------------------------------------------------------------|
|--------------------------------------------------------------------------|
|--------------------------------------------------------------------------|
Keyboard solo
|---------------------------------|----------------------------------------|
|---------------------------------|----------------------------------------|
|---------------------------------|----------------------------------------|
|-7--7-7-7-7-7-7-7-7-7-7-7-7-7-7--|-7-7-7-7-7-7-7-7-7-7-7-7-7-7-7-7--------|
|-5--5-5-5-5-5-5-5-5-5-5-5-5-5-5--|-5-5-5-5-5-5-5-5-5-5-5-5-5-5-5-5--------|
|---------------------------------|----------------------------------------|
|---------------------------------|----------------------------------------|
|---------------------------------|----------------------------------------|
|-------------------------------5-|-5-5-5-5-5-5----------------------------|
|-7-7-7-7-7-7-7-7-7-7-7-7-7-7-7-3-|-3-3-3-3-3-3-5----5-5-5-5-5-5--7--------|
|-5-5-5-5-5-5-5-5-5-5-5-5-5-5-5---|-------------3----3-3-3-3-3-3--5--------|
|---------------------------------|----------------------------------------|
|---------------------------------|----------------------------------------|
|---------------------------------|----------------------------------------|
|---------------------------------|----------------------------------------|
|-7-7-7-7-7-7-7-7-7-7-7-7-7-7-7-7-|-7-7-7-7-7-7-7-7-7-7-7-7-7-7-7-7--------|
|-5-5-5-5-5-5-5-5-5-5-5-5-5-5-5-5-|-5-5-5-5-5-5-5-5-5-5-5-5-5-5-5-5--------|
|---------------------------------|----------------------------------------|
|---------------------------------|----------------------------------------|
|---------------------------------|----------------------------------------|
|-------------------------------5-|-5-5-5-5-5-5----------------------------|
|-7-7-7-7-7-7-7-7-7-7-7-7-7-7-7-3-|-3-3-3-3-3-3-5----5-5-5-5-5-5--5--------|
|-5-5-5-5-5-5-5-5-5-5-5-5-5-5-5---|-------------3----3-3-3-3-3-3--3--------|
|---------------------------------|----------------------------------------|
Play fig 1 (intro) throughout chorus
|-----------------------13-------13-15----13-15-17-13-15-17s18p17-15s13----|
|-15~----13-15p13-15-17----15-17-------17----------------------------------|
|--------------------------------------------------------------------------|
|--------------------------------------------------------------------------|
|--------------------------------------------------------------------------|
|--------------------------------------------------------------------------|
|17-15-13s12-15-13-12-13p12-------|21p18----21s18p15----18s15p12----15p12p9-
|---------------------------15----|------20----------17----------14---------
|---------------------------------|-----------------------------------------
|---------------------------------|-----------------------------------------
|---------------------------------|-----------------------------------------
|---------------------------------|-----------------------------------------
1/2 Liar...
|---12br--|-----------|----10h13p10-t17p10h13p10-t18p10h13p10-t17p10h13p10--
|11-------|-10~-------|s13--------------------------------------------------
|---------|-----------|-----------------------------------------------------
|---------|-----------|-----------------------------------------------------
|---------|-----------|-----------------------------------------------------
|---------|-----------|-----------------------------------------------------
-t18p10h13p10-t17p10h13p10-t15p10h13p10|t15p10h13p10st15p9h12p9-t17p10h13p10
---------------------------------------|------------------------------------
---------------------------------------|------------------------------------
---------------------------------------|------------------------------------
---------------------------------------|------------------------------------
---------------------------------------|------------------------------------
-t15p9h12p9-t17p10h13p10-t15p12p9h12p9h12h13p10h12p10-------------12-------|
------------------------------------------------------13p10h13s15----------|
---------------------------------------------------------------------------|
---------------------------------------------------------------------------|
---------------------------------------------------------------------------|
---------------------------------------------------------------------------|
|-13----12-13-15-12-13-15s17-13-15s17h18p15-17-18p17p15-21p15-17-18-17-15---
|----15---------------------------------------------------------------------
|---------------------------------------------------------------------------
|---------------------------------------------------------------------------
|---------------------------------------------------------------------------
|---------------------------------------------------------------------------
1/4 1/2 1/2 1/2 1/2 1/2
21p15-17-18-17-15|-21p15--17-18b--17p15-18s21b-|-21b----21b---21b~---21b~---
-----------------|-----------------------------|----------------------------
-----------------|-----------------------------|----------------------------
-----------------|-----------------------------|----------------------------
-----------------|-----------------------------|----------------------------
-----------------|-----------------------------|----------------------------
|13-12-10s9-------------------------------|
|-----------11-10-8-----------------------|
|-------------------10-9-7s6--------------|
|----------------------------8-7-5--------|
|----------------------------------8-7-5--|
|-----------------------------------------|
You came to see me said you're my friend
I shared my art and my mind
You found it easier to steal than create
Then call it your's though it'smine
You can't fight
what is right face the truth
Liar
You can't feel
you just steal face the truth
Liar
Smile in my face, when I turn around
you stick a knife in my back
You think you're clever
you know you're insane
Your lies are not white they are black




Ваше мнение



Капча