Yngwie Malmsteen - I'm My Own Enemy
from Fire and Ice
[email protected] (Judy Letostak)
[email protected]
FidoNet 1:202/762 The Music Shop BBS (619)423-4970

Rhy Fig.1
|---0---------|-----------------0--------------------------|----------0--
|---0---------|-----------0--1-----1--------1p0-----0------|-------------
|---1----1----|--2--------------------2----------2-----2---|-------2-----
|---2---------|--------2-----------------------------------|----3--------
|---2---------|-----0--------------------------------------|-------------
|---0---------|--------------------------3-----------------|-1-----------

----------------0-----------|-----------0--------------------------3-----
-1--------------------------|-----------------1-----------------3-----3--
-------1-----1--------1--1--|--------2-----2-----2-----------0-----------
----3-----2--------2--------|-----2--------------------------------------
----------------------------|--0--------------------3--2-----------------
----------------------------|-----------------------------3--------------

--------|-------0-----------------------4---------------|
--------|----------1-----------------5--------5---------|
--0-----|----0--------0-----------4--------5-----4------|End Rhy Fig.1
--------|-------------------------------------------6---|
-----2--|-3--------------2--0---------------------------|
--------|----------------------4------------------------|

Guitar 2 plays diatonic 3rd below what's written (harmony guitar)
|----------------------|-----10------------------|--------------15--19~---
|-13~--13-12-10----12--|--13-----13-12--12h13p12-|-13--/15--/17-----------
|---------------12-----|-------------------------|------------------------
|----------------------|-------------------------|------------------------
|----------------------|-------------------------|------------------------
|----------------------|-------------------------|------------------------

--19p17--|--------19p17--16~-----------||-------------------------------|
---------|--20~---------------10--9----||----10~~~~---------------------|
---------|-----------------------------||o------------------------------|
---------|-----------------------------||o------------------------------|
---------|-----------------------------||-------------------------------|
---------|-----------------------------||-------------------------------|
Verse play Rhy Fig.1
Pre-Chorus
|-------5-----|--------------5-----------------------5----------|-5------
|----------5--|-----5-----5-----5-----5-----5-----5-----5----5--|----4---
|-------------|--------5-----------5-----------5----------5-----|-------5
|-------------|--7-----------------------7----------------------|--------
|-------------|-------------------------------------------------|--------
|-------------|-------------------------------------------------|--------

-----7-----------8-----------8-----------|------------------------0------|
--5-----7-----7-----7-----7-----7-----7--|-------------0-----0----0------|
-----------8-----------8-----------8-----|----------2-----2-------1------|
-----------------------------------------|-------2----------------2------|
-----------------------------------------|----2-------------------2------|
-----------------------------------------|-0----------------------0------|

Chorus
|-------------------------0----------|----------------------------0-----|
|-------------------0--0--0----------|----------------------------0-----|
|------------------------------------|----------------------------------|
|--5---------------------------------|---------------------2------------|
|--3------2p0------------------------|---7-----------------2------------|
|---------------4--------------4--7--|---5----------3--1---0------------|

|---1---------------------------|---------------------------------------|
|---1-----------------5---------|---------------12----12--12--12-------|
|---2-----------------5---------|---------------12----12--12--12-------|
|---3-------------5---5---------|---------------12----12--12--12-------|
|---3--------2--3-3-------5/7---|-8~-----10/12--10----10--10--10-------|
|---1-------------3-------------|---------------------------------------|

|-----------------0----------------|----------------------0--------------|
|-----------------0----------------|----------------------0--------------|
|-----------------4----------------|-------------------------------------|
|---5-------------2----------------|-------------------------------------|
|---3------2p0-----------------2---|----7--------------------------------|
|-----------------4--------4-------|----5-----3--1--0--0-----------------|

|---1---------------|-----------------|
|---1------5--------|---10------------|
|---2------5--------|---10-----12-----|
|---3------5--------|---10-----10-----|
|---3------3--------|----8-----10-----|
|---1------3--------|----8------------|

Interlude
|--------------------17----------------17----17~---17~-------------------
|-----------------17----17----------17----17------------13-15p13p12-12h13
|--------------17----------17----17--------------------------------------
|-----------19----------------19-----------------------------------------
|--------19--------------------------------------------------------------
|--17-20-----------------------------------------------------------------

-------12h13|h15~--13h15p13-12~-------|-------17------12----13-12--------
--h15-------|--------------------15p13|h15bf-----15~-----15-------15-13--
------------|-------------------------|----------------------------------
------------|-------------------------|----------------------------------
------------|-------------------------|----------------------------------
------------|-------------------------|----------------------------------

--12-------------------------------------------------|-15~-13~-12~-------|
-----15-13-12-15-13-12----13-12----------------15-17-|-------------15-13-|
-----------------------14-------14-13-13/16-17-------|-------------------|
-----------------------------------------------------|-------------------|
-----------------------------------------------------|-------------------|
-----------------------------------------------------|-------------------|

|-----------------------------------------------||
|-12b(13)--12b(13)-12b(13)--12b(13)-12b(13)----||
|----------------------------------------------o||
|----------------------------------------------o||
|-----------------------------------------------||
|-----------------------------------------------||
Ending 2
|-----------17-20----17----17~~~~---------------------------12h13h|15~---
|--------17-------17----17----------------12h15p13p12h13h15-------|------
|-----17----------------------------------------------------------|------
|--19-------------------------------------------------------------|------
|-----------------------------------------------------------------|------
|-----------------------------------------------------------------|------

--13~--12~-------|----17----------15-------------------12-13-12~---------|
------------15p13|p12----15-13-12----13-12----12-13-15------------13bf---|
-----------------|-------------------------14-------------------------14~|
-----------------|-------------------------------------------------------|
-----------------|-------------------------------------------------------|
-----------------|-------------------------------------------------------|

|-----x-15-13~--h15p13p12-12~-------|--------------------12-17-17~-------
|---x-------------------------15~-13|-12b(13)-rb12----13-----------------
|-x---------------------------------|--------------14--------------------
|-----------------------------------|------------------------------------
|-----------------------------------|------------------------------------
|-----------------------------------|------------------------------------

-----------14h16h14p16----------14h16h17p16p14-------|-21b(24)~rb21~----|
--14-16-17-------------17p14h17----------------17p14-|------------------|
-----------------------------------------------------|------------------|
-----------------------------------------------------|------------------|
-----------------------------------------------------|------------------|
-----------------------------------------------------|------------------|

|-20~---17h19p1716h17p16--16h17p1614-16p14-------14-------------14h16h17
|--------------------------------------------17bf-----17p15p14-17--------
|------------------------------------------------------------------------
|------------------------------------------------------------------------
|------------------------------------------------------------------------
|------------------------------------------------------------------------

--p16p14h17----------------------------|--------------16~----------------
----------------16h17h19/21--17p16-17--|-14---------------14----14bf--rb14
-------------18------------------------|----13p11-13---------13----------
---------------------------------------|---------------------------------
---------------------------------------|---------------------------------
---------------------------------------|---------------------------------

-----------------------|-------------------------------------------------
--14-16-17p16p14-16-17|16-16p14p13h14h16p14p13-------------14h16p14p13--
-----------------------|------------------------14p13p11h14--------------
-----------------------|-------------------------------------------------
-----------------------|-------------------------------------------------
-----------------------|-------------------------------------------------

----------------------------------------------------------------------12h
----------------------------------------------------------12-13h15h16----
-14p13p11----------13-11-14p13-11----------------11-13-14----------------
----------14p13p11----------------14-13-11-13-14-------------------------
-------------------------------------------------------------------------
-------------------------------------------------------------------------

--14h16/21--|-21bf---21bf-rb21~--21~---|--20~-----------14-16-17-16-14---
------------|--------------------------|-------14-16-17------------------
------------|--------------------------|---------------------------------
------------|--------------------------|---------------------------------
------------|--------------------------|---------------------------------
------------|--------------------------|---------------------------------

------------------------------------------------------------------------|
--17-16-141312--------------------------------------------------------|
-----------------14-13-11-------------11h13-----------------------------|
--------------------------14-11h13h14-------14/16bf--rb16-10-11-13------|
------------------------------------------------------------------------|
------------------------------------------------------------------------|

|-----------------------------------------------------------------------|
|-----------------------------------------------------------------------|
|----------11-13bf--rb13-11--/13-11-------------------------------------|
|-14-13-14--------------------------14-13b(14)--rb13-13b(14)-rb13~------|
|-----------------------------------------------------------------------|
|-----------------------------------------------------------------------|

|-------------------------------------------------------16-20------------
|-------------------------------16-17p16-17----16-17-19-------19p17h19---
|----------13-14-16/18p16h17h18-------------18---------------------------
|-13-14-16---------------------------------------------------------------
|------------------------------------------------------------------------
|------------------------------------------------------------------------

-20p16-------20p16-------20p16-------20p16-------20p16----16b(17)-------|
-------19p17-------19p17-------19p17-------19p17-------19---------------|
------------------------------------------------------------------------|
------------------------------------------------------------------------|
------------------------------------------------------------------------|
------------------------------------------------------------------------|

|-14-14h16-16~----16h17p16p14h16p14-------14-----------------------------|
|-----------------------------------17p16----17-16-14-17-16-1413---14-|
|-----------------------------------------------------------------15-----|
|------------------------------------------------------------------------|
|------------------------------------------------------------------------|
|------------------------------------------------------------------------|

|------------------------------------------------------------------------
|13-----------------------------------------------------------------13--
|----14-13-14-13----14-13-----------------------------------13-14-16-----
|----------------16-------16-13-16--13-16-13-------13-14-16--------------
|--------------------------------------------16-15-----------------------
|------------------------------------------------------------------------

--------12-14-16--14h16p14---------|------------------------------------|
--14-16--------------------17--16--|------------------------------------|
-----------------------------------|---outro-chorus---------------------|
-----------------------------------|------------------------------------|
-----------------------------------|------------------------------------|
-----------------------------------|------------------------------------|

2nd guitar play diatonic 3rd above (harmony guitar)
|----------------------------------|---9-11-12-14bf-----17-16-17-14-17---
|-17b(18)--16-17-14~---------------|-9---------------14----------------17
|-------------------------6--8--9--|-------------------------------------
|-----------------------6----------|-------------------------------------
|----------------------------------|-------------------------------------
|----------------------------------|-------------------------------------

-17----17--|-------------------------------------------------------------|
----16-----|-14p13-14~--dive-w/bar---------------------------------------|
-----------|-------------------------------------------------------------|
-----------|-------------------------------------------------------------|
-----------|-------------------------------------------------------------|
-----------|-------------------------------------------------------------|

=======================================================================
h = hammeron Judy Letostak
p = pulloff Internet [email protected]
/ = slide Fidonet 1:202/762
x = ghost note MetalNet 282:100/2
t = tap (right hand) The Music Shop BBS (619)423-4970 24hrs
~ = vibrato * = picked harmonic
bf = bend full tr = trill
rb = release bend p.s. = pick scrape
dive = dive with bar b = bend / step written over note
= repeat bar + = natural harmonic
========================================================================
The Music Shop BBS (619)423-4970 24hrs
Tons of music files, tab, lyrics, pictures, sound files....LORD, BRE
Falcon's Eye (interplanetary). Internet Email and USENET. Unsigned/
Indie band support, free of cost ask for more details.




Ваше мнение



Капча