From: [email protected] (Judy Letostak)
Yngwie Malmsteen "Icarus Dream Suite - Opus 4"
from Rising Force
[email protected]
tune down 1/2 step
natural harmonic

|-------------------|------------|------------|-----------|--------|-------|
|-------------------|------------|------------|-----------|--------|-------|
|----------7--------|-9----------|-------7----|-5---------|------7-|---9---|
|--5-------7--------|-9----------|-5-----7----|-5---------|-5----7-|---9---|
|--5-------5---xs---|-7------7s--|-5-----5----|-3---------|-5----5-|---7---|
|--3-----------xs---|-0----------|-3----------|-------8s--|-3------|---0---|
|------------------------h15t17t19--t19p17p15p12---------------------------|
|--5h8t12-t17-t20p17p12-----------------------------------t12--------------|
|-------------------------------------------------------------t12---t9-----|
|--------------------------------------------------------------------------|
|--------------------------------------------------------------------------|
|--------------------------------------------------------------------------|
|-------------------------|---------------|--------------------------------|
|--12~--------------------|---------------|------13~---12------------------|
|----------14p12s11-------|---------------|----x-----------14-12-14p12s11--|
|---------------------14--|-14p13~--------|--x-----------------------------|
|-------------------------|---------------|--------------------------------|
|-------------------------|---------------|--------------------------------|
1/2
|----------------------------------------|---------------------------------|
|--------------------t11p9-t11p9-t11p9~--|-15s17--17~---15-17-13-15-12-----|
|-11~-----11b----9~----------------------|---------------------------------|
|----------------------------------------|---------------------------------|
|----------------------------------------|---------------------------------|
|----------------------------------------|---------------------------------|
|-------------------------------8-10-|-10~--------8-10p7s8-----------------|
|-13~----13~---------11-8-10-12------|--------------------------10~--------|
|--------------9-8-9-----------------|-------------------------------------|
|------------------------------------|-------------------------------------|
|------------------------------------|-------------------------------------|
|------------------------------------|-------------------------------------|
|--------------------------------------------|---------------------|-------|
|-s12~--12--12--------------------------10-12|13~---12-13-10-12-8~-|-s10~--|
|-------------------------------9-11-12------|---------------------|-------|
|-----------------------9-10-12--------------|---------------------|-------|
|---------------9-10-12----------------------|---------------------|-------|
|--------------------------------------------|---------------------|-------|
|----------------------------|------------------14-14s17s20~-|12-14-15-14h15
|-12~------------------------|------------12s16--------------|--------------
|------14~--12h14p12s11------|---------11--------------------|--------------
|------------------------14--|-14~--13-----------------------|--------------
|----------------------------|-------------------------------|--------------
|----------------------------|-------------------------------|--------------
-p14p12-11-12-|-10~--10-13-13--12-10--|--------------12-|------------12----|
--------------|-----------------------|-13~----10-13----|-12~--s8-12-------|
--------------|-----------------------|-----------------|------------------|
--------------|-----------------------|-----------------|------------------|
--------------|-----------------------|-----------------|------------------|
--------------|-----------------------|-----------------|------------------|
|----------------------|-------------------|-------------------------------|
|-10~--10-12-13~-12-10-|-8~--8-10h12--10-8-|-8h10p8s7~--7-8-8h10p8s7~------|
|----------------------|-------------------|-------------------------------|
|----------------------|-------------------|-------------------------------|
|----------------------|-------------------|-------------------------------|
|----------------------|-------------------|-------------------------------|
1/2 1 1/2
|--------------------------12-11-12-14-15s17s19~--------21b~---------------|
|-----------------------12------------------------17-----------------------|
|--9~-------------11-12----------------------------------------------------|
|------9b------14----------------------------------------------------------|
|-----------14-------------------------------------------------------------|
|--------------------------------------------------------------------------|
acoustic guitar
=========================Repeat 7 times===================================
|-------0--3-----2~-------------|----------2-----0-----------2h3p2p0-------|
|----0--------0-------3~--------|-------3-----------1------0-----------3---|
|---------------------------2---|----2--------0---------0------------------|
|-------------------------------|------------------------------------------|
|-------------------------------|------------------------------------------|
|-0-----------------------------|-0----------------------------------------|
Volume swells
|---------------15---12---19---|-(19)~-------------------------------------|
|------------------------------|-------------------------------------------|
|------------------------------|-------------------------------------------|
|------------------------------|-------------------------------------------|
|------------------------------|-------------------------------------------|
|------------------------------|-------------------------------------------|
| | |
| acoustic guitar | |
|--------0--3-----2~-----------|-------------2-----0--------------2h3p2p0--|
|----0---------0------3~-------|----------3-------------1------0----------3|
|--------------------------2---|-------2--------0-----------0--------------|
|------------------------------|-------------------------------------------|
|------------------------------|-------------------------------------------|
|-0----------------------------|--0----------------------------------------|
|-----------------------------------|--------------------------------------|
|-------16------14------12----------|-12------------12~--------------------|
|-----------------------------------|---------13---------------------------|
|-----------------------------------|--------------------------------------|
|-----------------------------------|--------------------------------------|
|-----------------------------------|--------------------------------------|
| | |
| | |
|-----------------------------------|-----0---5p4-0-------------0----------|
|-------2-4----------------4--------|---0---0-------0-----0---0---0--------|
|-----4-----4----------4-----4------|-------------------1---1--------------|
|---4---------4------4---------4----|--------------------------------------|
|-2-------------2--0-----0-------0--|--------------------------------------|
|-----------------------------------|-4---------------0--------------------|
|---------------------------------|-10-------------------------------------|
|--13-----12-----10---------------|----------------10~---------------------|
|---------------------------------|---------11-----------------------------|
|---------------------------------|----------------------------------------|
|---------------------------------|----------------------------------------|
|---------------------------------|----------------------------------------|
| | |
| | |
|-----------0--------------0------|----------2h3p2-------------------------|
|-------0-1---1--------0-1---1----|----------------3--------------------|
|-----2--------------2------------|------2---------------------------|
|---2--------------2--------------|----0---0-----------------------0--2----|
|-0-------------------------------|----------------------------------------|
|----------------3-------------3--|--2-------------------------------------|
|-----------------------------------|--------------------------------------|
|-----10--------8---------6---------|--5--------6h8------6~----------------|
|-----------------------------------|--------------------------------------|
|-----------------------------------|--------------------------------------|
|-----------------------------------|--------------------------------------|
|-----------------------------------|--------------------------------------|
| | |
| | |
|---------5-----------------5-------|--------------0--------1---------1----|
|-----6-----6-----------5h6---6-----|----2-------2--------3---------3------|
|---5---5-----5-------7-------------|----------2--------2---------2--------|
|-3-------------3---7-----------7---|-----------------0--------------------|
|-----------------5-----------------|-0-----4------------------3-----------|
|-----------------------------------|--------------------------------------|
|--------------------------------|-----------------------------------------|
|--------------------------------|-----------------------------------------|
|---------10-----9--------7------|--7-------6------9-------8---------------|
|--------------------------------|-----------------------------------------|
|--------------------------------|-----------------------------------------|
|--------------------------------|-----------------------------------------|
| | |
| | |
|------------------------4-----0-|-----5-------5-------7-------7-----------|
|----------3-----------5-----3---|---5-------5-------7---7---7---7---------|
|-----3------3-------4-----1-----|-7-----7-6-----6-9-------8---------------|
|---3---3------3-----------------|-----------------------------------------|
|-1--------------0---------------|-----------------------------------------|
|------------------4-------------|-----------------------------------------|
|-----------------------------|
|--8--------------------------|
|--9--------------------------|
|-----------------------------|
|-----------------------------|
|-----------------------------|
| |
| |
|------0-3----2~--------------|
|----0-----0-------3~---------|
|-----------------------2-----|
|-----------------------------|
|-----------------------------|
|-0---------------------------|
electric
|------------------------------|-------------------------------|
|------------------------------|-------------------------------|
|------------------------------|-------------------------------|
|------------------------------|x-x-x-x-x-x-x-x-x-x-x-x-x-x-x--|
|------------------------------|7-7-7-7-7-7-7-7-7-7-7-7-7-7-7--|
|------------------------------|-------------------------------|
| | |
| | |
|-------3---0-------2h3p2p0----|-----0-3---2~------------------|
|-----3-------1---0---------3--|---0-----0------3~-------------|
|---2-----0-----0--------------|--------------------2----------|
|------------------------------|-------------------------------|
|------------------------------|-------------------------------|
|-0----------------------------|-0-----------------------------|
* feedback
|----------------------------------|---------------------------------------|
|----------------------------------|-17*-----------------------------------|
|----------------------------------|---------------------------------------|
|x-x-x-x-x-x-x-x-x-x-x-x-x-x-x-x---|---------------------------------------|
|7-7-7-7-7-7-7-7-7-7-7-7-7-7-7-7---|---------------------------------------|
|0-0-0-0-0-0-0-0-0-0-0-0-0-0-0-0---|---------------------------------------|
| | |
| |electric |
|-------2----0---------2h3p2p0-----|---------------------------------------|
|-----3----------1---0---------3---|---------------------------------------|
|---2------0-------0---------------|--------9--7---------------------------|
|----------------------------------|--------9--7------4-5-4h5p4------------|
|----------------------------------|--------7--5----7-----------7-5--------|
|-0--------------------------------|-0--0-0-------0------------------------|
|------------------------------|---------------------|---------------------|
|--(17)------------------------|---------(17)--------|------(17)-----------|
|------------------------------|---------------------|---------------------|
|------------------------------|---------------------|---------------------|
|------------------------------|---------------------|---------------------|
|------------------------------|---------------------|---------------------|
| | | |
| |repeat last 2 bars | |
|------------------------------|---------------------|---------------------|
|------------------------------|---------------------|---------------------|
|----------7--5----------------|-----------%---------|-----------%---------|
|----------7--5----------------|---------------------|---------------------|
|----------5--3----------------|---------------------|---------------------|
|-0---0-0--------0-2-3-5-3-2---|---------------------|---------------------|
|----------------------------------|----------------------------------------
|-----(17)-------------------------|-----(17)-------------------------------
|----------------------------------|----------------------------------------
|----------------------------------|----------------------------------------
|----------------------------------|----------------------------------------
|----------------------------------|----------------------------------------
| |
| |
|----------------------------------|-15-14-12s11----------------------------
|----------------------------------|-------------13-12-10-------------------
|--------9--7----------------------|----------------------12-11-9-8---------
|--------9--7------4-5-4h5p4-------|--------------------------------10-9-7--
|--------7--5----7-----------7-5---|----------------------------------------
|-0--0-0-------0-------------------|----------------------------------------
|-------|--------------|------------|---------------------------------------
|-------|--------------|--17bf------|---------------------------------------
|-------|--------------|------------|---------------------------------------
|-------|--------------|------------|---------------------------------------
|-------|--------------|------------|---------------------------------------
|-------|--------------|------------|---------------------------------------
| | | |
| | | |
|-------|--------------|------------|---------------------------------------
|-------|--------------|------------|---------------------------------------
|-------|--------------|------------|---------------------------------------
|-------|----s14~------|---14~------|---------------------------------------
|-10-9--|-7------------|------------|---------------------------------------
|-------|--------------|------------|---------------------------------------
|-------------------|---------------------------|--------------------------|
|---16---14---12----|--17~----------------------|-13---12h13p12---10-------|
|-------------------|--------------13---16~-----|--------------------------|
|-------------------|---------------------------|--------------------------|
|-------------------|---------------------------|--------------------------|
|-------------------|---------------------------|--------------------------|
|---------------------------------|----------------------------------------|
|15~------------------------------|----------------------------------------|
|---------11-----14~--------------|------12h14--------12--------10---------|
|---------------------------------|----------------------------------------|
|---------------------------------|----------------------------------------|
|---------------------------------|----------------------------------------|
|----------------------------------|---------------------------------------|
|----------------------------------|---------------------------------------|
|-9-----------10-12-10~------------|--------9h10--------9~---------7~------|
|----------------------------------|---------------------------------------|
|----------------------------------|---------------------------------------|
|----------------------------------|---------------------------------------|
| | |
| | |
|----------------------------------|---------------------------------------|
|----------------------------------|-------------------------------5-------|
|-------3-2------------------------|----------3--------------------4-------|
|-----2-----5-3-2---3-2-----2------|----------3--------------------2-------|
|-0-4-------------5-----5-3---5-3--|-1--1-1-1-1----------------------------|
|----------------------------------|--------------------4-4-4-4------------|
|-----------------------------------|--------------------------------------|
|-----------------------------------|--------------------------------------|
|-7~-------6~-------9~---------8~---|---9~---------------------------------|
|-----------------------------------|--------------------------------------|
|-----------------------------------|--------------------------------------|
|-----------------------------------|--------------------------------------|
| | |
| | |
|-----------------------------------|--------------------------------------|
|-----------------------------------|--------------------------------------|
|----------------------4~-----------|--------9--7--------------------------|
|----------7--7--7--7---------------|--------9--7-------4-5-4h5p4----------|
|-0--0--0---------------------------|--------7--5-----7-----------7-5------|
|-------------------------------7s--|0--0-0---------0----------------------|
|-15-14-12-11---------------------------------|--------------|-------------|
|-------------13-12-10------------------------|--------------|-------------|
|----------------------12-11-9-8--------------|--------------|-------------|
|--------------------------------10-9-7-------|--------------|-------------|
|---------------------------------------10-9--|--7~----------|-------------|
|---------------------------------------------|--------------|-------------|
| | | |
| | repeat last | two bars |
|---------------------------------------------|--------------|-------------|
|---------------------------------------------|--------------|-------------|
|----------7--5-------------------------------|-------%------|------%------|
|----------7--5-------------------------------|--------------|-------------|
|----------5--3-------------------------------|--------------|-------------|
|-0---0-0------------0--2--3--5--3--2---------|--------------|-------------|
Interlude
|-8-12-11-12-8-12-11-12-8-12-11-12-|-7-12-11-12-7-12-11-12-7-12-11-12-|---12
|----------------------------------|----------------------------------|10---
|----------------------------------|----------------------------------|-----
|----------------------------------|----------------------------------|-----
|----------------------------------|----------------------------------|-----
|----------------------------------|----------------------------------|-----
-11-12----12-11-12----12-11-12-|--12-11-12---12-11-12---12-11-12-|--11-9-11-
-------10----------10----------|8----------8----------8----------|7---------
-------------------------------|---------------------------------|----------
-------------------------------|---------------------------------|----------
-------------------------------|---------------------------------|----------
-------------------------------|---------------------------------|----------
---11-9-11---11-9-11-|--12-11-12---12-11-12---12-11-12-|-14-12-11----12-11--
-7---------7---------|8----------8----------8----------|----------13--------
---------------------|---------------------------------|--------------------
---------------------|---------------------------------|--------------------
---------------------|---------------------------------|--------------------
---------------------|---------------------------------|--------------------
-------11----------|-------------------------------------|
-13-12----13-12-10-|-13-12-10----12-10-------10----------|
-------------------|----------12-------12-11----12-11-8s-|
-------------------|-------------------------------------|
-------------------|-------------------------------------|
-------------------|-------------------------------------|
Solo
1/2
|------------------------------------15h17----15---15h17p15-----15---------|
|---------------------------16-17-19-------19---------------19-----19b-----|
|-s9------------16-17-16-17------------------------------------------------|
|------16-17-19------------------------------------------------------------|
|--------------------------------------------------------------------------|
|--------------------------------------------------------------------------|
1/2
|----------15-19-----15------------------|----------------------7-11p10h11p10|
|-19b---19-------19b----19b--19-17-19-19-|-19b--rb19p17~------8--------------|
|----------------------------------------|------------------9----------------|
|----------------------------------------|-----------------------------------|
|----------------------------------------|-----------------------------------|
|----------------------------------------|-----------------------------------|
|-8p7h8h10p8p7----7---------------------|----------------------------------|
|--------------10---10bf--t11p10-t15p10-|-t17p10-t18p10--t20-bf--10br~-----|
|---------------------------------------|----------------------------------|
|---------------------------------------|----------------------------------|
|---------------------------------------|----------------------------------|
|---------------------------------------|----------------------------------|
|------------------------------------|-------7-11p10p8s7-10p8p7-------------
|-10s12-12-11-11-12-12-8-8-10-10-7-7-|-8---8--------------------12p11h12p11-
|------------------------------------|---9----------------------------------
|------------------------------------|--------------------------------------
|------------------------------------|--------------------------------------
|------------------------------------|--------------------------------------
--------------------------|-------------------------------------------------
-p8-8s7-------------------|-7-----7-8---7-8s10-7-8-10s12-8-10-12s13-10-12---
--------9p7h8p7---9---7-9-|---8-9-----9-------------------------------------
----------------9---9-----|-------------------------------------------------
--------------------------|-------------------------------------------------
--------------------------|-------------------------------------------------
1/2
-------------------------------15------|-------15-----15-----15-17-19h20p19-
-13s15-12-13-15s17-13-15-17s19----19b--|-rb19-----19b----19b----------------
---------------------------------------|------------------------------------
---------------------------------------|------------------------------------
---------------------------------------|------------------------------------
---------------------------------------|------------------------------------
1 1/2
-p17----19-17----------21b----|-(21)~--19-20-17-20-15-20----20----20-------|
-----20-------20-19-17--------|--------------------------19----17----------|
------------------------------|--------------------------------------------|
------------------------------|--------------------------------------------|
------------------------------|--------------------------------------------|
------------------------------|--------------------------------------------|
1/2
|----------15-19p18p15----18-15-----15-----15-----15-17--------------------|
|-16-17-19-------------19-------19b----19b----19b-------20~----------12----|
|-----------------------------------------------------------------12-------|
|--------------------------------------------------------------14----------|
|--------------------------------------------------------------------------|
|--------------------------------------------------------------------------|
|---------------------------------------------------------------------------
|-16p15p13s12-15p13p12----12-13p12-------------------------------------12h13
|----------------------15----------------------------11-12----11s12h14------
|----------------------------------14p12h14p13-12-14-------14---------------
|---------------------------------------------------------------------------
|---------------------------------------------------------------------------
1 1/2
---------------s21b---|
-p12------------------|
-----14p12s11---------|
----------------------|
----------------------|
----------------------|
top note harmony guitar
1/2
|--21rb--------------------|----------5-------------7----------------------|
|--------------------------|-8--------7-------------8------------8---------|
|--------------------------|-9-----------------------------------9---------|
|--------------------------|-----------------------------------------------|
|--------------------------|-----------------------------------------------|
|--------------------------|-----------------------------------------------|
| | |
| | acoustic guitar |
|--------------------------|---0-------------------------------------------|
|--------------------------|---0-------------------------------------------|
|--4--4------5--5-----4----|---0-------------------------------------------|
|--4--4------5--5-----4----|---2-------------------------------------------|
|--2--2------3--3-----2----|---2-------------------------------------------|
|--------------------------|---0-------------------------------------------|
|------------------11-14p11--------|------------------|---------------------|
|8---7--5-7-----12----------13-----|-10---12--13--10--|-12-10-12-16-17-12h13|
|9---8--6-8--11----------------14--|-11---12--14--11--|-12-11---------------|
|----------------------------------|------------------|---------------------|
|----------------------------------|------------------|---------------------|
|----------------------------------|------------------|---------------------|
| | | |
| | | |
|--7-------7-----------------------|------------------|--7------------------|
|--8-------7-----------------------|--7---------------|--7------------------|
|--9-------8-----------------------|--8---------------|--8------------------|
|--9-------9-----------------------|--9---------------|--9---5-4-5----------|
|----------9-----------------------|--9---------------|--9---7-6-7----------|
|----------------------------------|--7---------------|--7------------7-5---|
|-----------------|
|-p12-----10------|
|-----------------|
|-----------------|
|-----------------|
|-----------------|
| |
| |
|-----------------|
|-----------------|
|-----------------|
|-----------------|
|-----------------|
|------3--2-------|
()harmony else note on top
|----------10---12(16)--|-12---10----------12-10---------------|------------
|-12--13---12-----------|-13---12--10(13)--13-12--10(13)-8(12)-|7(10)--8(12)
|-13--14----------------|--------------------------------------|------------
|-----------------------|--------------------------------------|------------
|-----------------------|--------------------------------------|------------
|-----------------------|--------------------------------------|------------
---------10(14)-|-7(10)------------------7(10)------------------------------
-10(13)---------|----------10(13)--8(12)-------10(13)8(12)7(10)10(13)8(12)--
----------------|-----------------------------------------------------------
----------------|-----------------------------------------------------------
----------------|-----------------------------------------------------------
----------------|-----------------------------------------------------------
--------|----------------------------------|
-7(10)--|---------7(10)-----8(12)----------|
--------|-9(12)---------------------9(12)--|
--------|----------------------------------|
--------|----------------------------------|
--------|----------------------------------|
|-------9-12--15---15~----14p12-|-14-14---12-11----------------------12-11--
|----11-------------------------|---------------13-12-10----10-12-13--------
|-12----------------------------|------------------------12-----------------
|-------------------------------|-------------------------------------------
|-------------------------------|-------------------------------------------
|-------------------------------|-------------------------------------------
| |
| |
|--6-----------------9----------|-------------------------------------------
|--5-----------------8----------|-4--------4--------------------4-----------
|--6-----------------9----------|-4--------4--------------------------------
|--5-----------------8----------|-------4------4----------4-----------------
|-------------------------------|-2------------------0----------------------
|-------------------------------|-------------------------------------------
|----11-------------|
|-13----13-12-------|
|-------------------|
|-------------------|
|-------------------|
|-------------------|
| |
| |
|-------------------|
|-------------------|
|----4--------------|
|-------------------|
|-------------------|
|-------------------|
|---------------------------------------|----------------------------------|
|-10-12-8-10-7-8---7--------------------|---------7------8-----------------|
|----------------9---8------------------|-9-------------------------9------|
|----------------------10-9-7-----------|----------------------------------|
|-----------------------------10-9-7-6--|----------------------------------|
|---------------------------------------|----------------------------------|
|------------------------11-14-11-------|----------------------------------|
|---------------------12----------13----|----------------------------------|
|--9------8---6---8------------------14-|-11-------12-------14------11-----|
|---------------------------------------|----------------------------------|
|---------------------------------------|----------------------------------|
|---------------------------------------|----------------------------------|
|-----------------------|--------------------------------------------------|
|-----------------------|-----------------------------------------15bfrb---|
|-11------12--11--12----|-13~-------------14~-----------16~----------------|
|-----------------------|--------------------------------------------------|
|-----------------------|--------------------------------------------------|
|-----------------------|--------------------------------------------------|
| | |
| | |
|-7---------------------|-----------------------------------------14bfrb---|
|-7--------5--4--5------|-12~-------------13~-----------15~----------------|
|-8--------7--6--7------|--------------------------------------------------|
|-9---------------------|--------------------------------------------------|
|-9---------------------|--------------------------------------------------|
|-7---------------------|--------------------------------------------------|
|---------------------------------------|----------------------------------|
|-13---12----13-12h13p12----------------|-------------------13bfrb---------|
|---------14-------------14-12-16-14-12-|-11~---12~---14~------------------|
|---------------------------------------|----------------------------------|
|---------------------------------------|----------------------------------|
|---------------------------------------|----------------------------------|
| | |
| | |
|-12---10----12-10h12p10----------------|-------------------12bfrb---------|
|---------13-------------13-12-15-13-12-|-10~---12~---13~------------------|
|---------------------------------------|----------------------------------|
|---------------------------------------|----------------------------------|
|---------------------------------------|----------------------------------|
|---------------------------------------|----------------------------------|
|----------------------------------------|
|-12~---10----12-10h12p10-------10-------|
|----------12-------------12-11----12-11-|
|----------------------------------------|
|----------------------------------------|
|----------------------------------------|
| |
| |
|-10~---8-----10-8h10p8----------8-------|
|---------12---------------12-10---12-10-|
|----------------------------------------|
|----------------------------------------|
|----------------------------------------|
|----------------------------------------|
harmony guitars on top
|------------------------------|12p9----------9s12-15p12----------12-15s18--
|--8-------10-------12------8--|-----11----11------------14----14-----------
|--9-------11-------12------9--|--------12------------------15--------------
|------------------------------|--------------------------------------------
|------------------------------|--------------------------------------------
|------------------------------|--------------------------------------------
-p15----------15-18s21~--|--------------|---------------|------------------|
-----17----17------------|-16~--14--12--|-17~-----------|-13--12tr13--10---|
--------18---------------|--------------|------13--16~--|------------------|
-------------------------|--------------|---------------|------------------|
-------------------------|--------------|---------------|------------------|
-------------------------|--------------|---------------|------------------|
|----------------|------------------|------------------|-------------------|
|-15~------------|------------------|------------------|-------------------|
|-------11--14~--|-14~---12~---10~--|--9~---10-12-10~--|-9h10~--9~--7~-----|
|----------------|------------------|------------------|-------------------|
|----------------|------------------|------------------|-------------------|
|----------------|------------------|------------------|-------------------|
|-13bf--------|
|-------------|
|--7bf---6----|
|-------------|
|-------------|
|-------------|
acoustic guitar
repeat 3x
|----1----0------3----1----0----------|----1------0-------------------------|
|-----------3-------------------1---3-|-------------3----1------------------|
|------2------2----2----2----2----2---|--------2------2-------3---2---0---2-|
|-0-----------------------------------|-0------------------0----0---0---0---|
|-------------------------------------|-------------------------------------|
|-------------------------------------|-------------------------------------|
add acoustic gtr2 part
|----13----12-------15----13----12-------------|---13----12-----------------
|-15----------15----------------------13----15-|15----------15----13--------
|-------14-------14----14----14----14----14----|------14-------14------15---
|----------------------------------------------|---------------------12---12
|----------------------------------------------|----------------------------
|----------------------------------------------|----------------------------
-----------------|
-----------------|
-14----12----14--|
----12----12-----|
-----------------|
-----------------|
|-13h15h17-13h15-13------------13-15--13h15p13-------|----15s17--15-13------
|-------------------17-15~--17-----------------17-13-|-15--------------17-15~
|----------------------------------------------------|----------------------
|----------------------------------------------------|----------------------
|----------------------------------------------------|----------------------
|----------------------------------------------------|----------------------
| |
| |
|-----1-------0--------------------0-----------0-----|----------------------
|-----------------3-----------3-----------3----------|----------------------
|--------2-------------------------------------------|---------%------------
|--0-------------------------------------------------|----------------------
|---------------------3----1-----------3-------------|----------------------
|----------------------------------------------------|----------------------
|----------17p13--------------|
|-------15-------15-----------|
|----14-------------14----14~-|
|-15-------------------15-----|
|-----------------------------|
|-----------------------------|
| |
| |
|-----------------------------|
|-----------------------------|
|-----------------------------|
|-----------------------------|
|-----------------------------|
|-----------------------------|
|-17--15-13------------13-15--13h15p13-------|---15s17--15-------20bf~-----|
|-----------17-15~--17-----------------17-13-|15-----------18-17-----------|
|--------------------------------------------|-----------------------------|
|--------------------------------------------|-----------------------------|
|--------------------------------------------|-----------------------------|
|--------------------------------------------|-----------------------------|
Outro
electric repeat to fade out
|------------------------------------|--------------------------------------|
|------------------------------------|--------------------------------------|
|------------------------------------|-------------------%------------------|
|-7-7-7-7-7-7-7-7-7-7-7-7-7-7-7-7----|--------------------------------------|
|-5-5-5-5-5-5-5-5-5-5-5-5-5-5-5-5----|--------------------------------------|
|------------------------------------|--------------------------------------|
| | |
|acoustic | |
|---1---0-----3----1----0------------|---1----0-----------------------------|
|---------3-----------------1----3---|----------3---1-----------------------|
|-----2-----2---2----2----2---2------|-----2------2------3---2---0---2------|
|-0----------------------------------|-0---------------0---0---0---0--------|
|------------------------------------|--------------------------------------|
|------------------------------------|--------------------------------------|




Ваше мнение



Капча