Here's Hanger 18 Area 51 By Yngwie Malmsteen
It's not as hard as it sounds
Please E-mail me at [email protected] with comments or suggestions
By the way.. I have this in Guitar Pro 4 format if you want it

E||-----------------------------------|-------------------------------------|
B||-----------------------------------|-------------------------------------|
G||*----------------------------------|-------------------------------------|
D||*------------------6-7---6---------|------------------9-10-7-9-6-7-6-----|
A||---5-7-----------------8---8-7-5-8-|--5-7----------------------------8-7-|
E||-------0-0-0-0-0-0-----------------|------0-0-0-0-0-0--------------------|

-------------------------------------|-----------------------------------||
-------------------------------------|-----------------------------------||
------------------9-10-7-9----7------|----------------------------------*||
---------------------------10---9-10-|--7-9-6-7---6---------------------*||
--5-7--------------------------------|----------8---8-7-5-8-7-5----------||
------0-0-0-0-0-0--------------------|--------------------------8-7-5-4--||

-----------------------------------|-------------------------------------|
-----------------------------------|-------------------------------------|
*----------------------------------|-------------------------------------|
*------------------6-7---6---------|------------------9-10-7-9-6-7-6-----|
---5-7-----------------8---8-7-5-8-|--5-7----------------------------8-7-|
-------0-0-0-0-0-0-----------------|------0-0-0-0-0-0--------------------|

-------------------------------------|-----------------------------------||
-------------------------------------|-----------------------------------||
------------------9-10-7-9----7------|----------------------------------*||
---------------------------10---9-10-|--7-9-6-7---6---------------------*||
--5-7--------------------------------|----------8---8-7-5-8-7-5----------||
------0-0-0-0-0-0--------------------|--------------------------8-7-5-4--||

-----------------------------------|----------------------|
-----------------------------------|----------------------|
*--2-------------------------------|--5----4----2---------|
*--2-------------------------------|--5----5----2----5----|
---0-0-0-0-0-0-0-0-0-0-0-0-0-0-0-0-|------------0----5----|
-----------------------------------|-----------------3----|
3x
----------------------------------|-----------------------------------||
----------------------------------|-----------------------------------||
----------------------------------|----------------------------------*||
--3-------------------------------|--5-------------------------------*||
--3-------------------------------|--5--------------------------------||
--1-1-1-1-1-1-1-1-1-1-1-1-1-1-1-1-|--3-3-3-3-3-3-3-3-3-3-3-3-3-3-3-3--||

----------------------------------|----------------------------------|
----------------------------------|----------------------------------|
--5-------------------------------|----------------------------------|
--5-------------------------------|--5-------------------------------|
--3-3-3-3-3-3-3-3-3-3-3-3-3-3-3-3-|--5-------------------------------|
----------------------------------|--3-3-3-3-3-3-3-3-3-3-3-3-3-3-3-3-|

----------------------------------|----------------------|
----------------------------------|----------------------|
----------------------------------|----------------------|
--6-------------------------------|--7----7----5----5----|
--6-------------------------------|--7----7----5----5----|
--4-4-4-4-4-4-4-4-4-4-4-4-4-4-4-4-|--5----5----3----3----|

----------------------------------|----------------------------------|
----------------------------------|----------------------------------|
----------------------------------|----------------------------------|
--3-------------------------------|--4-------------------------------|
--3-------------------------------|--4-------------------------------|
--1-1-1-1-1-1-1-1-1-1-1-1-1-1-1-1-|--2-2-2-2-2-2-2-2-2-2-2-2-2-2-2-2-|

----------------------------------|----------------------------------|
----------------------------------|----------------------------------|
--4-------------------------------|----------------------------------|
--4-------------------------------|----------------------------------|
--2-2-2-2-2-2-2-2-2-2-2-2-2-2-2-2-|--2-2-2-2-2-2-2-2-2-2-2-2-2-2-2-2-|
----------------------------------|----------------------------------|

|-----------------------------------|-------------------------------------|
|-----------------------------------|-------------------------------------|
|*----------------------------------|-------------------------------------|
|*------------------6-7---6---------|------------------9-10-7-9-6-7-6-----|
|---5-7-----------------8---8-7-5-8-|--5-7----------------------------8-7-|
|-------0-0-0-0-0-0-----------------|------0-0-0-0-0-0--------------------|

-------------------------------------|-----------------------------------||
-------------------------------------|-----------------------------------||
------------------9-10-7-9----7------|----------------------------------*||
---------------------------10---9-10-|--7-9-6-7---6---------------------*||
--5-7--------------------------------|----------8---8-7-5-8-7-5----------||
------0-0-0-0-0-0--------------------|--------------------------8-7-5-4--||

-----------------------------------|----------------------|
-----------------------------------|----------------------|
*--2-------------------------------|--5----4----2---------|
*--2-------------------------------|--5----5----2----5----|
---0-0-0-0-0-0-0-0-0-0-0-0-0-0-0-0-|------------0----5----|
-----------------------------------|-----------------3----|

----------------------------------|-----------------------------------||
----------------------------------|-----------------------------------||
----------------------------------|----------------------------------*||
--3-------------------------------|--5-------------------------------*||
--3-------------------------------|--5--------------------------------||
--1-1-1-1-1-1-1-1-1-1-1-1-1-1-1-1-|--3-3-3-3-3-3-3-3-3-3-3-3-3-3-3-3--||

-----------------------------------|----------------------------------|
-----------------------------------|----------------------------------|
*--5-------------------------------|----------------------------------|
*--5-------------------------------|--5-------------------------------|
---3-3-3-3-3-3-3-3-3-3-3-3-3-3-3-3-|--5-------------------------------|
-----------------------------------|--3-3-3-3-3-3-3-3-3-3-3-3-3-3-3-3-|

----------------------------------|----------------------|
----------------------------------|----------------------|
----------------------------------|----------------------|
--6-------------------------------|--7----7----5----5----|
--6-------------------------------|--7----7----5----5----|
--4-4-4-4-4-4-4-4-4-4-4-4-4-4-4-4-|--5----5----3----3----|

----------------------------------|----------------------------------|
----------------------------------|----------------------------------|
----------------------------------|----------------------------------|
--3-------------------------------|--4-------------------------------|
--3-------------------------------|--4-------------------------------|
--1-1-1-1-1-1-1-1-1-1-1-1-1-1-1-1-|--2-2-2-2-2-2-2-2-2-2-2-2-2-2-2-2-|

----------------------------------|-----------------------------------||
----------------------------------|-----------------------------------||
--4-------------------------------|----------------------------------*||
--4-------------------------------|----------------------------------*||
--2-2-2-2-2-2-2-2-2-2-2-2-2-2-2-2-|--2-2-2-2-2-2-2-2-2-2-2-2-2-2-2-2--||
----------------------------------|-----------------------------------||

-----------------------------------|-------------------------------------|
-----------------------------------|-------------------------------------|
*----------------------------------|-------------------------------------|
*------------------6-7---6---------|------------------9-10-7-9-6-7-6-----|
---5-7-----------------8---8-7-5-8-|--5-7----------------------------8-7-|
-------0-0-0-0-0-0-----------------|------0-0-0-0-0-0--------------------|

-------------------------------------|-----------------------------------||
-------------------------------------|-----------------------------------||
------------------9-10-7-9----7------|----------------------------------*||
---------------------------10---9-10-|--7-9-6-7---6---------------------*||
--5-7--------------------------------|----------8---8-7-5-8-7-5----------||
------0-0-0-0-0-0--------------------|--------------------------8-7-5-4--||




Ваше мнение



Капча