Yngwie Malmsteen - Golden Dawn
from Fire and Ice
Judy Letostak ([email protected])
tune down 1/2 step
|----------7-------|------------------|--------------|--------------------|
|--8---10----------|--10-----8--7-----|--------------|--------------------|
|--9---------------|------------------|--9-----------|----7---------------|
|--9---------------|------------------|--------------|--------------------|
|--7---------------|------------------|--------------|--------------------|
|------------------|------------------|--------------|--------------------|
| | | | |
| | | | |
|--0----2---3------|---2-----0--------|------0-------|--------------------|
|--0---------------|---3--------3-----|---------0----|-----3--------------|
|--0---------------|---2-----------0--|----0---------|-----0--------------|
|--2---------------|---0--------------|--2-----------|-----0--------------|
|--2---------------|------------------|3-------------|-----2--------------|
|--0---------------|------------------|--------------|--------------------|
|---------------|-----------------------|-------------------|--------------|
|-1-----0-------|--0h1---0--------------|-------------------|--------------|
|----------2----|------------2----------|--2----------------|--------------|
|---------------|-----------------------|-------------------|--------------|
|---------------|-----------------------|-------------------|--------------|
|---------------|-----------------------|-------------------|--------------|
| | | | |
| | | | |
|---------------|-----------------------|----------2--------|----------0---|
|-1-----0-------|-----1p0---------------|-------------3-----|-------1-----1|
|----------2----|----------2------------|-------2--------2--|----2---------|
|-0-----------2-|-------------2---------|----0--------------|-3------------|
|---------------|-----------------------|-------------------|--------------|
|---------------|--3--------------3-----|-2-----------------|--------------|
|-----------7---|------------------|-----------------|--------------------|
|--8----10------|--10-----8--7-----|-----------------|--------------------|
|---------------|------------------|---9-------------|--7-----------------|
|---------------|------------------|-----------------|--------------------|
|---------------|------------------|-----------------|--------------------|
|---------------|------------------|-----------------|--------------------|
| | | | |
| | | | |
|--0-----2--3---|---2-----0--------|---------0-------|--------------------|
|--0------------|---3--------3-----|------------0----|---3----------------|
|--0------------|---2-----------0--|-------0---------|---0----------------|
|--2------------|---0--------------|----2------------|---0----------------|
|--2------------|------------------|-3---------------|---2----------------|
|--0------------|------------------|-----------------|--------------------|
|-------------------|----------6---------|-7---------------|--------------|
|-------------------|----5--8-----8--5---|------7--5h7p5---|--4-----------|
|--5p4---5----------|-6------------------|-----------------|--------------|
|-------------------|--------------------|-----------------|--------------|
|-------------------|--------------------|-----------------|--------------|
|-------------------|--------------------|-----------------|--------------|
| | | | |
| | | | |
|-------------------|--------------------|-----------------|---7----------|
|-1------0----------|-------5--8---------|----------7------|---7----------|
|-----------2-------|----6--------6------|-------9---------|---8----------|
|-0------------2----|-8--------------8---|----9------------|---9----------|
|-------------------|--------------------|-----------------|---9----------|
|-------------------|--------------------|-7---------------|---7----------|
|--------------------|--------------------|-------5--8--------------------|
|--------------------|--------------------|-------------------------------|
|--------------------|-------4--------4---|-5-----------------------------|
|--------------------|-3--6-----3--6------|----7--------------------------|
|-------5-----2--5---|--------------------|-------------------------------|
|----------4---------|--------------------|-------------------------------|
| | | |
| | | |
|-------------7------|-------------7------|-------------5-----------------|
|----------------6---|----------6-----6---|----------5-----5--------------|
|-------7------------|-------7------------|-------5-----------------------|
|----6-----6---------|--------------------|----7--------------------------|
|--------------------|--------------------|-0-----------------------------|
|-0------------------|--------------------|-------------------------------|
|-12--13--12---------|---------8--11--8------|----------------------------|
|--------------------|-----10----------------|-10-------------------------|
|--------------------|-11----------------11--|-----11--8--11------8-------|
|--------------------|-----------------------|----------------10----------|
|--------------------|-----------------------|----------------------------|
|--------------------|-----------------------|----------------------------|
| | | |
| | | |
|-------------5------|------------------8----|-----------------4----------|
|---------5-------5--|--------------7------7-|-------------4-------4------|
|--------------------|----------8------------|---------5------------------|
|-----7--------------|------7----------------|-----7----------------------|
|-0------------------|--0--------------------|-0--------------------------|
|--------------------|-----------------------|----------------------------|
|--------------------|-------------------|---12--13------10--13-----------|
|--------------------|-------------------|--------------------------------|
|--------------------|-------------------|--------------------------------|
|-7-----9--------7---|-6--7--9-----------|--------------------------------|
|--------------------|-------------------|--------------------------------|
|--------------------|-------------------|--------------------------------|
| | | |
| | | |
|-------------0------|-------------0-----|------------------7-------------|
|----------0-----0---|----------0-----0--|---------------------6----------|
|-------2------------|-------1-----------|-------7------------------------|
|----2---------------|----2--------------|----6---------------------------|
|--------------------|-------------------|--------------------------------|
|-0------------------|-0-----------------|-0------------------------------|
|-----13------13------13--|-12--------------------|-----------------------|
|-13------12------10------|---------13----12------|-13-----10-------------|
|-------------------------|-----13------------13--|-----------------------|
|-------------------------|-----------------------|-----------------------|
|-------------------------|-----------------------|-----------------------|
|-------------------------|-----------------------|-----------------------|
| | | |
| | | |
|------------------4------|-------------5---------|-------------5---------|
|-------------------------|----------5-----5------|----------5-----5------|
|----------7--------------|-------5---------------|-------5---------------|
|------6------------------|----7------------------|----7------------------|
|-------------------------|-0---------------------|-0---------------------|
|--0----------------------|-----------------------|-----------------------|
|------------8--8----|------------------|-----------------|----------------|
|---------7----------|-10p7-------------|-----------------|-----8--8--5----|
|------8-------------|-------8p5--------|-----------------|---6---------6--|
|--------------------|------------7-----|-9---------------|-8--------------|
|--------------------|------------------|-----------------|----------------|
|--------------------|------------------|-----------------|----------------|
| | | | |
| | | | |
|-------------8------|-------------4----|-------------0---|-----3----------|
|----------7-----7---|----------4-----4-|----------0-----0|----------5-----|
|-------8------------|-------5----------|-------2---------|---3------------|
|----7---------------|----7-------------|----2------------|-5------5----5--|
|-0------------------|-0----------------|-----------------|----------------|
|--------------------|------------------|-0---------------|----------------|
Ending 1
|-------------------------------|----7------------------------------------|
|---10/12-----------------------|-----------------------------------------|
|-------------------------------|-----------------------------------------|
|-------------------------------|-----------------------------------------|
|-------------------------------|-----------------------------------------|
|-------------------------------|-----------------------------------------|
| | |
| | |
|-------------7-----------------|-----7-----------------------------------|
|----------7-----7--------------|-----7-----------------------------------|
|-------9-----------------------|-----8-----------------------------------|
|----9--------------------------|-----9-----------------------------------|
|-------------------------------|-----9-----------------------------------|
|-7-----------------------------|-----7-----------------------------------|
Ending 2
|-------------------|
|--1------0---------|
|------------2------|
|-------------------|
|-------------------|
|-------------------|
| |
| |
|-------------------|
|--1------0---------|
|--2---------2------|
|--2----------------|
|--0----------------|
|-------------------|
|------------------|---------------------|--------------------------------|
|-1----0-----------|--1------0-----------|--------------------------------|
|-----------2------|-------------2-------|--2-----------------------------|
|------------------|---------------------|--------------------------------|
|------------------|---------------------|--------------------------------|
|------------------|---------------------|--------------------------------|
| | | |
| | | |
|------------------|---------------------|--------------------------------|
|----1p0-----------|-----1p0-------------|--------------------------------|
|-----------2------|--------------2------|--------------------------------|
|---------------0--|-----------------0---|--------------------------------|
|------------------|---------------------|--------------------------------|
|-3----------------|-2-------------------|--1----3-----3/5----------------|
Free Time
|---------------------------------------------10------8--------------------
|-----------------10-10-12-12----------------------------------------------
|---------9-11-12-------------11-11-12-12----------------------------------
|------9-----------------------------------12----/10----9-10-10-7-7-9------
|--------------------------------------------------------------------------
|--------------------------------------------------------------------------
|
|
|--------------------------------------------------------------------------
|----------------------------0-----------0-----------0-----------------0---
|----------------0--------0--------0-----------0-----------0-----0---------
|-------4-----4-----4--4--------4-----0-----4-----4-----4-----4-----4------
|----2-----2---------------------------------------------------------------
|-0------------------------------------------------------------------------
----3-5p3-5-3p0-2h3p2-0-----||
--5-------------------------||
4---------------------------||
----------------------------||
----------------------------||
----------------------------||
||
||
--0-------------------------||
----------------------------||
----------------------------||
----------------------------||
----------------------------||
------3---------------------||
=======================================================================
h = hammeron Judy Letostak
p = pulloff Internet [email protected]
/\ = slide Fidonet 1:202/762
x = ghost note MetalNet 666:666/2
t = tap (right hand) The Music Shop BBS (619)423-4970 24hrs
~ = vibrato
bf = bend full
rb = release bend
dive = dive with bar
========================================================================
The Music Shop BBS (619)423-4970
Guitar Tab, Bass Tab, Sound files, Guitar Lessons, Lyrics, Music programs
Sound players, pictures, graphic viewers...
...LORD...BRE...Fidonet...MetalNet...
In a band? I have a file area for bands, send me your lyrics, pictures,
biographies...Anything, all styles of music welcome, any location. I have
access to a color scanner, send sase to get the picture back. Email me
for my snail mail address. Can be sent via email or FidoNet pictures can
be decoded, please use pkzip (2.04g) for sound files, these can be encoded
also.
How Many Miles To Babylon Tab by Malmsteen Yngwie
A:hover { COLOR: #EF0000; TEXT-DECORATION: underline }
.content {FONT-SIZE: 11px; COLOR: #686468; font-family: Verdana, Arial, Helvetica}
BODY {font-family: Verdana, Arial, Helvetica }
Buy: Malmsteen Yngwie Sheet Music, Malmsteen Yngwie Music or Buy Posters
Home : M : Malmsteen Yngwie Tabs : How Many Miles To Babylon Tab
Current Rating: (0 / 5) N/A

 

HOW CORRECT IS THIS TAB?
worse better
From: [email protected] (Judy Letostak)
Subject: TAB Yngwie Malmsteen "How Many Miles To Babylon"
Yngwie Malmsteen "How Many Miles to Babylon"
from Fire and Ice
[email protected] Judy Letostak
tune down 1/2 step
fig 1
|-----------0----------------------------------|---------------------------|
|--------0-----0-----------0-------------------|---------------------------|
|-----0-----------2----------------------------|-------------%-------------|
|--------------------4--2-----1----------------|---------------------------|
|--------------------------------3--2--0-------|---------------------------|
|--0--------------------------------------2--0-|---------------------------|
1/2
|------------------------------------------------|-------------------------|
|------------------------------------------------|-------------------------|
|--16~---------------14---12~--------------------|-------------------------|
|----------------16------------13--16------------|--16b--rb16-14~----------|
|------------------------------------------------|-------------------------|
|------------------------------------------------|-------------------------|
| | |
| | |
|-----------0------------------------------------|-------------------------|
|--------0-----0-----------0---------------------|-------------------------|
|----0------------2------------------------------|-----------%-------------|
|--------------------4--2-----1------------------|-------------------------|
|--------------------------------3--2--0---------|-------------------------|
|-0---------------------------------------2--0---|-------------------------|
1/2
|------------------------------------|-------------------------------------|
|------------------------------------|-------------------------------------|
|-14/16---------14---12~-------------|-------------------------------------|
|----------16----------------13-16---|--16b---rb16--14~--------------------|
|------------------------------------|-------------------------------------|
|------------------------------------|-------------------------------------|
| | |
| | |
|------------------------------------|-------------------------------------|
|------------------------------------|-----------------------0--------0----|
|--------------%---------------------|-------0-------0-----0--------0------|
|------------------------------------|-----2-------2-----2--------2--------|
|------------------------------------|---2-------2--------------2----------|
|------------------------------------|-0-------2-------3-------------------|
|-----------------------------------|--------------------------------------|
|-10h13-----12--10~-----------10----|--10h12~-----15-----/17~--------------|
|-----------------------12----------|--------------------------------------|
|-----------------------------------|--------------------------------------|
|-----------------------------------|--------------------------------------|
|-----------------------------------|--------------------------------------|
| | |
| | |
|-----------0-----------------------|-----------------2------------0-------|
|-------0-1---1----------3----------|--------0-------------------0---------|
|-----2----------------2-----2------|------0--------2----------0-----0-----|
|---2----------------0-----0---0----|----0--------0----------4---------2p0-|
|-0---------------------------------|----------------------2---------------|
|----------------3-2-------------2--|--3--------2--------0-----------------|
|----------------------------------------------|---------------------------
|---13~------------13h15------------14---------|--17/19----17h19p17-16-17--
|---------------------------14-----------------|---------------------------
|----------------------------------------------|---------------------------
|----------------------------------------------|---------------------------
|----------------------------------------------|---------------------------
| |
| |
|----------0---------------------0----------3--|-------3-2-----------------
|-------------1--------------------------2-----|-----5-------5---4---4---4-
|-------0--------0-------------2-------3-------|---4-------4-------4---4---
|----2-----------------------2------2----------|-4-------------4-----------
|-3-----------------3--2--0--------------------|---------------------------
|----------------------------------------------|---------------------------
-----------------------|---------------------------------------------------|
--16-------------------|-17~-----------15----------------------------------|
------17-16p14-12h14---|------------------------17--16--14~----------------|
-----------------------|-----------------------------------------16--------|
-----------------------|---------------------------------------------------|
-----------------------|---------------------------------------------------|
| |
| |
-----------------------|----------0-----------------------0----------------|
-----4-----------------|-------------1--------------------------0----------|
--------4--------------|-------0--------0--------------2--------------4----|
--4--------------------|----2-----------------------2--------------4-------|
-----------------------|-3-----------------3--2--0-----------2-------------|
-----------------------|---------------------------------------------------|
|------------------------------------------------------|
|------------12---12h13-----12tr13~--------------------|
|--12--14----------------------------------------------|
|------------------------------------------------------|
|------------------------------------------------------|
|------------------------------------------------------|
| |
| |
|------------------0-----------------------------------|
|----------0----------0--------0-----------0-----------|
|------------------------0--------0-----0-----0--------|
|-------4----------------------------2-----------------|
|----2-------------------------------------------2-----|
|-0------------2------------3--------------------------|
|--------------------------------------------------|-----------------------|
|--15/17-----------14------------------------------|-----------------------|
|-----------------------17--16---14~---------------|-12-14-12--------------|
|-----------------------------------------16-------|----------16p14~--\9---|
|--------------------------------------------------|-----------------------|
|--------------------------------------------------|-----------------------|
| | |
| | |
|-----------0-----------------------0--------------|-----------------------|
|--------------1-----------------------------------|--0--------------------|
|--------0--------0--------------2------------4----|--0--------------------|
|-----2-----------------------2------------4----4--|--2--------------------|
|--3-----------------3--2--0------------2----------|--2--------------------|
|--------------------------------------------------|--0--------------------|
1/2
|----------------------------|------------------------------|---------------
|----------------------------|------------------------------|---------------
|-16~------------------------|------------------------12-14-|-14/16---------
|------16-16h19-17~--13--16--|-16b--rb16p14~-------14-------|-------16------
|----------------------------|------------------------------|---------------
|----------------------------|------------------------------|---------------
1/2
---------------------|------------------------------------------------------
---------------------|---------------------12----12-------------12----------
---------------------|------------------12----12----12-11h12h14----14bf-----
--16h19-17~--13--16--|-16b--rb16p14--14-------------------------------------
---------------------|------------------------------------------------------
---------------------|------------------------------------------------------
---------------|------------------|-------------------|---------------------|
---------------|------------------|----------15---h17-|-15\13--13h15--------|
--rb14--14bf~--|-17p16p14\12--14--|--14h16~-----------|--------------14~-12-|
---------------|------------------|-------------------|---------------------|
---------------|------------------|-------------------|---------------------|
---------------|------------------|-------------------|---------------------|
|-14h15p14----14-----------------------------------|------------------------|
|----------17------17-16-17--p16-------------------|-15bf--15-13-12---------|
|--------------------------------17-16-14--14h16~--|----------------14~-----|
|--------------------------------------------------|--------------------16--|
|--------------------------------------------------|------------------------|
|--------------------------------------------------|------------------------|
1/2
|-----------------|---------------------------------|-15h17p15p14----------|
|-----------------|-15bf~--rb15-13h15p13\12---------|--------------17~-----|
|-12-14-16b--16~--|-------------------------14------|----------------------|
|-----------------|-----------------------------16--|----------------------|
|-----------------|---------------------------------|----------------------|
|-----------------|---------------------------------|----------------------|
|--3h5p3p2--3~--|------2--3~----------------------7h20p7p5-----------------|
|---------------|---5------------------------------------------------------|
|---------------|----------------------------------------------------------|
|---------------|----------------------------------------------------------|
|---------------|----------------------------------------------------------|
|---------------|----------------------------------------------------------|
|-19~--19--17h19p17\15h17p15\14h13p14\12h14p12\11h12p11\8h11p8\7h8p7|\5h7~--|
|-------------------------------------------------------------------|-------|
|-------------------------------------------------------------------|-------|
|-------------------------------------------------------------------|-------|
|-------------------------------------------------------------------|-------|
|-------------------------------------------------------------------|-------|
fig 2
|---------------|----------------|-----------------------------------------|
|---------------|----------------|-----------------------------------------|
|---------------|----------------|----9--9--------9--9----------9~---------|
|---------------|----------------|-----------------------------------------|
|--2------------|----------------|-----------------------0--0--------------|
|--0---0--------|----------------|-0--------0--0---------------------------|
|-------------------|-----------------------|------------------------------|
|-------------------|-----------------------|------------------------------|
|------------9--9~--|-----------------------|------------------------------|
|--11---------------|-----------------------|---------------------7--9-----|
|-------------------|-----------------------|---------------------5--7-----|
|------0--0---------|-----------------------|------------------------------|
||-----------------------------|-------------------|-----------------------|
||-----------------------------|-------------------|-----------------------|
||-------9--9-----9--9-----9~--|------------9--9~--|-----------------------|
||--(9)------------------------|--11---------------|-----------------------|
||--(7)------------------------|-------------------|-----------------------|
||-------------0--------0------|------0--0---------|-----------------------|
end 1 end 2 end 3
|---------------|-------------------|---------------------|----------------|
|---------------|-------------------|---------------------|----------------|
|---------------|-------------------|---------------------|----------------|
|----7--9-------|----------7----9---|---------------------|------9---------|
|----5--7-------|----------5----7---|---------------------|------7---------|
|---------------|-------------------|---------------------|------0---------|
|---------------|-------------|----------------|
|---------------|-------------|----------------|
|---------------|-------------|----------------|
|---------------|------9--9---|----------7-----|
|---------------|------7--7---|----------7-----|
|---------------|--0----------|----------------|
Verse
1. In this wasteland without any shadow
2. In this our endless searching for the holy grail
|-------------------|-------------------|------------------|-----------------|
|-------------------|-------------------|------------------|-----------------|
|-------------------|-------------------|------------------|-----------------|
|-9--10--7--10--9---|-------10--7--10---|-9--10--10~---9~--|10-7-10----10---7|
|-7--7---7--7---7---|-------7---7--7----|-7--7---7---------|--------10----9-7|
|-------------------|-0--0--------------|------------------|-----------------|
there is no water for my dusty throat
there is no sleep for the souls who find no rest
|-------------------|---------------------|--------------------------------|
|-------------------|---------------------|--------------------------------|
|-------------------|---------------------|--------------------------------|
|-9--10--7--10--9---|------10--7--10~-----|--9--10--10----------2----------|
|-7--7---7--7---7---|------7---7--7~------|--7--7---7-----5-----3----------|
|-------------------|-0--0----------------|--------------------------------|
There is no rainbow
Ships on the desert
|----------------------|------------------|--------------------------------|
|----------------------|------------------|--------------------------------|
|----------------------|------------------|--------------------------------|
|-4--5--7--5h7p5\4-----|-9--10--7--10--9--|--------10--7--10---------------|
|-------5-----------5--|-7--7---7--7---7--|---------7--7--7----------------|
|----------------------|------------------|--0--0--------------------------|
Day is filled with silent sorrow and for our sins there are no
without rigs or sails Flotsam and Jetsam drifting
|------------------|-----------------|------------------|---------------------|
|------------------|-----------------|------------------|---------------------|
|------------------|-----------------|------------------|---------------------|
|-9--10--10~---9~--|10-7-10----10---7|-9--10--7--10--9--|------10--7--10~-----|
|-7--7---7---------|--------10----9-7|-7--7---7--7---7--|------7---7--7~------|
|------------------|-----------------|------------------|-0--0----------------|
antidotes
from the west
|---------------------------|----------------------|
|---------------------------|----------------------|
|---------------------------|----------------------|
|--9--10--10----------2-----|-4--5--7--5h7p5\4-----|
|--7--7---7-----5-----3-----|-------5-----------5--|
|---------------------------|----------------------|
Pre-chorus
Eternal sand There is no end to this no
|-------------------------|---------------------|--------------------------|
|-------------------------|---------------------|--------------------------|
|------2---2----2--2------|--------0--0--0--0---|--2--2--------0--0--------|
|------0---0----2--2------|--3--3--2--2--0--0---|--0--0--2--2--0--0--------|
|--0------------0--0------|--3--3--3--3---------|--------0--0--------3-----|
|------1---1--------------|--1--1--------3--3---|--1--1--------3--3--1-----|
man's land We all must pay
|-----------------|----------------------------|---------------------------|
|------------0----|----------------------------|---------------------------|
|--0----0----0----|---2--2---------------------|-------0--0----0--0--------|
|--2----0----0----|---0--0---2-----------------|-3--3--2--2----0--0--------|
|--3--------------|----------0---0-dive-w/bar--|-3--3--3--3----------------|
|-------3----3----|---1--1---------------------|-1--1----------3--3--------|
For the piper we dance while he plays
|--------------------------|-----------------------|-----------------------|
|--------------------------|-----------------------|-----------------------|
|--2--2--------0--0--------|-----0---0---0----4----|------4~---------------|
|--0--0--2--2--0--0--------|-----2---0---0---------|-----------------------|
|--------0--0--------3-----|-----3-----------------|------6~---------------|
|--1--1--------3--3--1-----|---------3---3---------|-----------------------|
dance while he plays
|------------------|-------------------|-----------------------|
|------------------|-------------------|-----------------------|
|-----0----0---4---|-------------------|------4~---------------|
|-----2----0-------|-------------------|-----------------------|
|--3--3------------|-------------------|------6~---------------|
|--1-------3-------|-------------------|-----------------------|
Chorus play fig 2
How many miles to babylon
How many years must I carry on
Solo
|------------------------------------------------|--------------------------
|-10-13-12-13-10-13-12-13-9-12-10-12-9-12-10-12--|-8-12-10-12-8-12-10-12-7-10
|------------------------------------------------|--------------------------
|------------------------------------------------|--------------------------
|------------------------------------------------|--------------------------
|------------------------------------------------|--------------------------
---8x----
-----------------|---------------------|-8h12p8--t17p8h12p8--t16p7h10p7/22-|
--8-10-7-10-8-10-|-6-10-8-10-6-10-8-10-|-----------------------------------|
-----------------|---------------------|-----------------------------------|
-----------------|---------------------|-----------------------------------|
-----------------|---------------------|-----------------------------------|
-----------------|---------------------|-----------------------------------|
|-12~--13p12p10----------12h13p12----------------------------|--------------
|---------------13p12p10----------13p12p10\9-----------------|--------------
|--------------------------------------------12p10p9---------|--------------
|----------------------------------------------------12p10p9/|15-14h15h17---
|------------------------------------------------------------|--------------
|------------------------------------------------------------|--------------
-------------------13-15-17bf--t18bfp15-|-20bf~--15/17--|-17-18-15-18----18-
----------14h15-17----------------------|---------------|-------------18----
-14h15h17-------------------------------|---------------|-------------------
----------------------------------------|---------------|-------------------
----------------------------------------|---------------|-------------------
----------------------------------------|---------------|-------------------
----18----18--------------|-13h17p13------13p10----------------------------|
-17----15----14h17p14h15--|----------15------------------------------------|
--------------------------|-------------x-------10----9h10h12p10p9---------|
--------------------------|------------------------12--------------12bf----|
--------------------------|---------------------------------------------12-|
--------------------------|------------------------------------------------|
1/2
|----------------12-17~--------12b-----rb12-|-10---------------------------|
|-------------13-------------------x--------|-----13p12--10\9--------------|
|----------14-------------------------------|-------------------12---------|
|----10-14----------------------------------|------------------------------|
|-12----------------------------------------|------------------------------|
|-------------------------------------------|------------------------------|
|------------------------------------------8h10h12--p10p9\7h10-------------|
|----------------------------------9h10h12---------------------------------|
|-10p9---------------------9h10h12-----------------------------------------|
|-------12p10p9----9h10h12-------------------------------------------------|
|---------------12---------------------------------------------------------|
|--------------------------------------------------------------------------|
|-p8p7--h8p7--------|-12p17------17p14-------14p11------11\8-------13-------
|------------10~\9--|-------19-x-------16----------13--------10-------13p12-
|-------------------|---------------------17----------13--------10----------
|-------------------|-------------------------------------------------------
|-------------------|-------------------------------------------------------
|-------------------|-------------------------------------------------------
-------|------------19-19-17-19\---------22-19-17-19\-|---------------------
--p10--|-12~--10-12/------------12-10-12/-------------|12h13p12p0----5------
-------|----------------------------------------------|---------------------
-------|----------------------------------------------|---------------------
-------|----------------------------------------------|---------------------
-------|----------------------------------------------|---------------------
--2h3p2------|------2h3p2----------2h3p2---------2h|3p2--------2h3p2--------
----------0h1|p0-----------4p1p0----------4p1p0----|----4p1p0--------4p1p0--
-------------|-------------------------------------|------------------------
-------------|-------------------------------------|------------------------
-------------|-------------------------------------|------------------------
-------------|-------------------------------------|------------------------
-2h3p2--------2h3p2---------2h3p2p0--7~--|-----5-8/11p8----11-/14p11--------
-------4p1p0---------4p1p0---------------|-5-7----------10------------13----
-----------------------------------------|----------------------------------
-----------------------------------------|----------------------------------
-----------------------------------------|----------------------------------
-----------------------------------------|----------------------------------
-11h14p11--15p12-12\10-|-t15p12h14p12p11-t15p12-t15p14p12p11-t15p14p12p11---
-----------------------|----------------------------------------------------
-----------------------|----------------------------------------------------
-----------------------|----------------------------------------------------
-----------------------|----------------------------------------------------
-----------------------|----------------------------------------------------
-t17p14p12-12/19--19~---|------19~-------|--17p13h17p13h17-t20p13h17p13-----
------------------------|----------------|----------------------------------
------------------------|----------------|----------------------------------
------------------------|----------------|----------------------------------
------------------------|----------------|----------------------------------
------------------------|----------------|----------------------------------
-t20p13h17p13-t20p13h17p13-t20p17p13h17p13-t20p17p13\10-|-t17p14-t17p14p10--
--------------------------------------------------------|-------------------
--------------------------------------------------------|-------------------
--------------------------------------------------------|-------------------
--------------------------------------------------------|-------------------
--------------------------------------------------------|-------------------
-----------10h14/17p14---------|-----12h13-10h12p10-------------------------
--------10-------------15------|9/10----------------------------------------
--14/11-------------------14~--|--------------------14p12h14p12\10h12p10-9--
-------------------------------|--------------------------------------------
-------------------------------|--------------------------------------------
-------------------------------|--------------------------------------------
-------------10---------|----------------------------|---------------------|
----------10-----13bf---|----------------------------|---------------------|
--10--------------------|-12-12-12-12-12-12-12-12~---|-12------12-12-12----|
------12----------------|-14-14-14-14-14-14-14-11~---|-11--11--11-11-11----|
------------------------|----------------------------|---------------------|
------------------------|----------------------------|---------------------|
|--8--10--12--10--8h10p8-7------|----------------|
|---------------------------10--|-----12~-w/bar--|
|-------------------------------|----------------|
|-------------------------------|-5--------------|
|-------------------------------|----------------|
|-------------------------------|----------------|
chorus
end on E5
==========================================================================
h = hammeron x = ghost note
p = pulloff % = repeat last bar
/\ = slide up/down p.s. = pickscrape
~ = vibrato dive = dive with bar
t = tap
===========================================================================
/---------------------------------\
|The Music Shop BBS (619)423-4970 |
\---------------------------------/




Ваше мнение



Капча