Fire In The Sky
Autor: Yngwie Malmsteen
From The Album Magnum Opus
Tabbed By Martin Bisonni
EMail: [email protected]

Intro:

Gtr.1
|---------------------------------------------------------------------------------------------|
|---------------------------------------------------------------------------------------------|
|-----11-12-9-11----9-------------------------------------------------------------------------|
|--9-------------12---12-11-9-12-11-8-9-11-9~-(9)---------------------------------------------|
|---------------------------------------------------------------------------------------------|
|---------------------------------------------------------------------------------------------|
| Gtr.2 |
|---------------------------------------------------------------------------------------------|
|---------------------------------------------------------------------------------------------|
|-------------------------------------------------11-12-9-11----9-----------------------------|
|------------------------------------------------------------12---12-11-9-12-11-8-9-11-9~-(9)-|
|---------------------------------------------------------------------------------------------|
|---------------------------------------------------------------------------------------------|
Gtr.1
|---------------------------------------------------------------------------------------------|
|---------------------------------------------------------------------------------------------|
|-----11-12-9-11----9-------------------------------------------------------------------------|
|----------------12---12-11-9-12-11-8-9-11-9~-(9)---------------------------------------------|
|---------------------------------------------------------------------------------------------|
|---------------------------------------------------------------------------------------------|
| Gtr.2 |
|---------------------------------------------------------------------------------------------|
|---------------------------------------------------------------------------------------------|
|-------------------------------------------------11-12-9-11----9-----------------------------|
|------------------------------------------------------------12---12-11-9-12-11-8-9-11-9~-(9)-|
|---------------------------------------------------------------------------------------------|
|---------------------------------------------------------------------------------------------|
Gtr.1
|---------------------------------------------------------------------------------------------|
|---------------------------------------------------------------------------------------------|
|-----11-12-9-11----9-------------------------------------------------------------------------|
|----------------12---12-11-9-12-11-8-9-11-9~-(9)---------------------------------------------|
|---------------------------------------------------------------------------------------------|
|---------------------------------------------------------------------------------------------|
| Gtr.2 |
|---------------------------------------------------------------------------------------------|
|---------------------------------------------------------------------------------------------|
|-------------------------------------------------11-12-9-11----9-----------------------------|
|------------------------------------------------------------12---12-11-9-12-11-8-9-11-9~-(9)-|
|---------------------------------------------------------------------------------------------|
|---------------------------------------------------------------------------------------------|
Gtr.1
|------------------------------------------------------------|
|------------------------------------------------------------|
|-----11-12-9-11----9----------------------------------------|
|----------------12---12-11-9-12-11-8-9-11-------------------|
|------------------------------------------------------------|
|------------------------------------------------------------|
Gtr 1 & 2
|-------------------------------------------------------------|
|-------------------------------------------------------------|
|-------------------------------------------------------------|
|--9h8----9-8------8------------------------------------------|
|------10-----10-9---10-9-7-10-9-7----------------------------|
|----------------------------------10-9-7~-(7)----------------|

If you play with fire...
(1)
|------------------------------------------------------------------------|
|------------------------------------------------------------------------|
|------------------------------------------------------------------------|
|------------------------------------------------------------------------|
|------------------------------------------------------------------------|
|-7-7-7-7-7-7-7-7-7-7-7-7-7-7-7-7---2-2-2-2-2-2-2-2-2-2-2-2-2-2-2-2------|
|------------------------------------------------------------------------|
|------------------------------------------------------------------------|
|---------------------------------/7~-6-6~-------------------------------|
|---------------------------------/7~-7-7~-------------------------------|
|------------------------------------------------------------------------|
|-3-3-3-3-3-3-3-3-3-3-3-3-3-3-3-3----------------------------------------|
|------------------------------------------------------------------------|
|------------------------------------------------------------------------|
|------------------------------------------------------------------------|
|------------------------------------------------------------------------|
|------------------------------------------------------------------------|
|-7-7-7-7-7-7-7-7-7-7-7-7-7-7-7-7-7-2-2-2-2-2-2-2-2-2-2-2-2-2-2-2-2------|
|------------------------------------------------------------------------|
|------------------------------------------------------------------------|
|---------------------------------/7~-6-6~-------------------------------|
|---------------------------------/7~-7-7~-------------------------------|
|------------------------------------------------------------------------|
|-3-3-3-3-3-3-3-3-3-3-3-3-3-3-3-3----------------------------------------|
*************************
(2)
Gtr.1
|-----------------------------------------15-17-19-----------------------------|
|--------------------------------15-17-19--------------------------------------|
|--16-19-18-19-16-19-18-19-16-18-----------------------------------------------|
|------------------------------------------------------------------------------|
|------------------------------------------------------------------------------|
|------------------------------------------------------------------------------|
|Gtr.2
|------------------------------------------------------------------------------|
|------------------------------------------------------------------------------|
|------------------------------------------------------------------------------|
|------------------------------------------------------------------------------|
|------------------------------------------------------------------------------|
|--3--3--3--3--3--3--3--3--3--3--3--3--3--3--3--3------------------------------|
Gtr.1
|-----------------------------------------15-17-19-----------------------------|
|--------------------------------15-17-19--------------------------------------|
|--16-19-18-19-16-19-18-19-16-18-----------------------------------------------|
|------------------------------------------------------------------------------|
|------------------------------------------------------------------------------|
|------------------------------------------------------------------------------|
|Gtr.2
|------------------------------------------------------------------------------|
|------------------------------------------------------------------------------|
|------------------------------------------------------------------------------|
|------------------------------------------------------------------------------|
|------------------------------------------------------------------------------|
|--2--2--2--2--2--2--2--2--2--2--2--2--2--2--2--2------------------------------|
Gtr.1
|------------------------------------------------------------------------------|
|------------------------------------------------------------------------------|
|--16-19-18-19-16-19-18-19-16-19-18-19-16-18-19-16-----------------------------|
|------------------------------------------------------------------------------|
|------------------------------------------------------------------------------|
|------------------------------------------------------------------------------|
|Gtr.2
|------------------------------------------------------------------------------|
|------------------------------------------------------------------------------|
|------------------------------------------------------------------------------|
|------------------------------------------------------------------------------|
|------------------------------------------------------------------------------|
|--1--1--1--1--1--1--1--1--1--1--1--1--1--1--1--1------------------------------|

Gtr.1
|------------------------------------------------------------------------------|
|------------------------------------------------------------------------------|
|--18~-(18)--------------------------------------------------------------------|
|------------------------------------------------------------------------------|
|------------------------------------------------------------------------------|
|------------------------------------------------------------------------------|
|Gtr.2
|------------------------------------------------------------------------------|
|------------------------------------------------------------------------------|
|------------------------------------------------------------------------------|
|------------------------------------------------------------------------------|
|------------------------------------------------------------------------------|
|--2--3--2--0--2--3--2--0--2--3--2--0--2--2--2--2------------------------------|
***********************
(3)
|-------------------------------------------------------------------|
|-------------------------------------------------------------------|
|-------------------------------------------------------------------|
|-------------------------------------------------------------------|
|-------------------------------------------------------------------|
|--7-7-7-7-7-7-7-7-7-7-7-7-7-7-7-7-6-6-6-6-6-6-6-6-6-6-6-6-6-6-6-6--|
|-------------------------------------------------------------------|
|-------------------------------------------------------------------|
|-------------------------------------------------------------------|
|-------------------------------------------------------------------|
|-------------------------------------------------------------------|
|--5-5-5-5-5-5-5-5-5-5-5-5-5-5-5-5-4-4-4-4-4-4-4-4-4-4-4-4-4-4-4-4--|
|------------------------------------------------------------------------------|
|------------------------------------------------------------------------------|
|-----4~-----------------------------------------------------------------------|
|-----4~--11~--11~-------------------------------------------------------------|
|--2--2~---8~---9~-------------------------------------------------------------|
|--0---------------------------------------------------------------------------|
Repeat (1)

Repeat (2)

Repeat (3) x2

Repeat Intro

Interlude: x2
|--15-12-14-15-14-12---------------------------------------------------|
|--------------------14-11-12-14-12-11---------------------------------|
|--------------------------------------12-9-11-12-11-9-----------------|
|------------------------------------------------------11-8-9-11-9-8---|
|----------------------------------------------------------------------|
|----------------------------------------------------------------------|
|--14-10-12-14-12-10-10-7-9-10-9-7-------------------------------------|
|----------------------------------------------------------------------|
|-----------------------------------11-7-9-11-9-7-7-4-6-7-6-4----------|
|----------------------------------------------------------------------|
|----------------------------------------------------------------------|
|----------------------------------------------------------------------|

|--9h6-------6-12h9----------9-15h12----------12-18h15----------15-19~-|
|------8---8--------11----11---------14----14----------17----17--------|
|--------9-------------12---------------15----------------18-----------|
|----------------------------------------------------------------------|
|----------------------------------------------------------------------|
|----------------------------------------------------------------------|
SOLO




Ваше мнение



Капча