#----------------------------------PLEASE NOTE---------------------------------#
#This file is the author's own work and represents their interpretation of the #
#song. You may only use this file for private study, scholarship, or research. #
#------------------------------------------------------------------------------##
Yngwie Malmsteen - Faultline
from Eclipse
Judy Letostak ([email protected])
tune down 1/2 step
On the chorus, the top staff, the notes are harmony guitars, the top notes
are one guitar and the bottom ones are the second. The bottom staff is
the rhythm guitar. Anything with a = like 7=8 seven is one guitar and the
8 is the other, a harmony guitar.
|------------------------|------------------------------------------------|
|------------------------|------------------------------------------------|
|------------------------|------------------------------------------------|
|---7/9--9----7/9--9-----|--75---5----5/9---7~---------------------------|
|---5/7--7----5/7--7-----|--53---3----3/7---5~---------------------------|
|------------------------|------------------------------------------------|
|------------------------|------------------------------------------------|
|------------------------|------------------------------------------------|
|------------------------|------------------------------------5--7--------|
|---7/9--9----7/9--9-----|--75---5----5/9-----------5--7--9--------------|
|---5/7--7----5/7--7-----|--53---3----3/7--5--7--9-----------------------|
|------------------------|------------------------------------------------|
|------------------------|------------------------------------------------|
|------------------------|------------------------------------------------|
|------------------------|------------------------------------------------|
|---7/9--9----7/9--9-----|--75---5----5/9---7~---------------------------|
|---5/7--7----5/7--7-----|--53---3----3/7---5~---------------------------|
|------------------------|------------------------------------------------|
p.s.
|------------------------|------------------------------------------------|
|------------------------|------------------------------------------------|
|------------------------|------------------------------------------------|
|---7/9--9----7/9--9-----|--75---5----5/9---x---------------------------|
|---5/7--7----5/7--7-----|--53---3----3/7---x---------------------------|
|------------------------|-------------------------14--------------------|
Verse
Something deep inside far from reality. We pretend it never crossed our mind
2. We don't want to hear that this could be the day. So much for
|-----------------------|--------------------------|-----------------------|
|-----------------------|--------------------------|-----------------------|
|-----------------------|--------------------------|-----------------------|
|--9--------------------|---------------4-5-4h5p4--|------------------4h5h7|
|--7----5h7--7-----7----|--5h7--x-x-5~-------------|-5h7-7---5h7-7---7-----|
|------------0----------|--------------------------|-----0-------0--7------|
We feel, but never sense, building up a strong defense
science fiction as you always say. But soon the day will come. It's only
|-----------------------------------5p0-|---------------------------------|
|---------------------------4h5h7/8-----|---------------------------------|
|---------------------4h5h7-------------|------------------x---x----------|
|---------------4h5h7-------------------|----------------x---x-x----------|
|-7p5-c-c-c-7-5-------------------------|-5h7-7---5h7-7-------------------|
|---------------------------------------|-----0-------0-------------------|
Some say it's our destiny. Lord, we're
Just begun Fror people on the fault line it's no use to pray. Why
living in danger? (to chorus)
|--------------------------|---------7h10-10/12----|-12--12/15-14-12-10-10h|
|--------------------------|--------12p10-21p11----|--------12-10----------|
|--------------------------|-----------------------|-12--12-------12-11-11h|
|--------------------------|-----------------------|-----------------------|
|--------------------------|-----------------------|-----------------------|
|--------------------------|-----------------------|-----------------------|
| | | |
| | | |
|--------------------------|-----------------------|-----------------------|
|-------------------8------|-----------------------|-----------------------|
|---------------------9~---|-----5-----------------|-----------------------|
|-----------------9--------|-----5-----------------|-----------------------|
|-5h7-7--5h7-7--x----------|-5p3-3--3-7-5--2h5-5/7-|-7-7-10-9-7-5-5h7--7---|
|-----0------0-------------|-----------------------|-----------------------|
living on the faultline. Get out of here!
|-12--12-7--10-10-12--|-12-12/15-14-12-10-8--7h10-10/12----|
|--------12-10--------|-------12-10------------------------|
|-12--12-------12p11--|-12-12-------12-11-9-12-10-21p11----|
|---------------------|------------------------------------|
|---------------------|------------------------------------|
|---------------------|------------------------------------|
| | |
| | |
|---------------------|------------------------------------|
|---------------------|------------------------------------|
|---------------------|------------------------------------|
|---------------------|------------------------------------|
|-2h5--5/7------------|--7--7/10-9--7-5-3~--2h5--5/7-------|
|---------------------|------------------------------------|
|-12-12/15-14--12-10-10h12-12--7h10-10/12--|-12-12/15-14--12-10-8~--------|
|-------12-10-----------------12-10--------|-------12-10------------------|
|-12-12--------12-11-11h12-12-------12p11--|-12-12--------12-11-12--------|
|------------------------------------------|------------------------------|
|------------------------------------------|------------------------------|
|------------------------------------------|------------------------------|
| | |
| | |
|------------------------------------------|------------------------------|
|------------------------------------------|------------------------------|
|------------------------------------------|------------------------------|
|------------------------------------------|------------------------------|
|-7~-7/10-9-----7--5-5h7--7-------2h5-5/7--|--7--7/10-9----7--5--3~-------|
|------------------------------------------|------------------------------|
Chorus
Cry the prophets of our time Fear the signs. Save those you
|-----------------------------------|-------------------------------------|
|-----------------------------------|--7--------------7----8----7---------|
|---9----7------------7---9---------|--8-----9---8----8----9----7---------|
|--10----9----7=10----9--10--7=10---|-------10---9------------------------|
|-----------------------------------|-------------------------------------|
|-----------------------------------|-------------------------------------|
|harmony guitars | |
| | |
|-----------------------------------|-------------------------------------|
|-----------------------------------|-------------------------------------|
|-----------------------------------|-------------------------------------|
|-----------------------------------|--4--------------4----5----4---------|
|--7-----5----3-------5---7---3-----|--6----7----6----6----7----5---------|
|--8-----7----5-------7---8---5-----|-------8----7------------------------|
love and all your children. Your life depends on castles in the sand
|------------------------------------|------------------------------------|
|------------------------------------|------------------------------------|
|--9----7------------7----9----------|------------------8-----------------|
|-10----9----7=10----9---10----7=10--|--8=11------------9-----------------|
|------------------------------------|------------------------------------|
|------------------------------------|------------------------------------|
| | |
| | |
|------------------------------------|------------------------------------|
|------------------------------------|----------------8-tr7---------------|
|------------------------------------|------------6-9-----------9--8~-----|
|------------------------------------|--------5-8-------------------------|
|-7-----5----3-------5----7----3-----|----4-7-----------------------------|
|-8-----7----5-------7----8----5-----|--6-----------------7---------------|
|-----14---15---17bf---17---15---14--------------|------------------------|
|--17--7----8---10bf---10----8----7---16=8--17=7h|8-----------------------|
|---9--------------------------------------------|------------------------|
|------------------------------------------------|------x----------------|
|------------------------------------------------|------------------------|
|------------------------------------------------|------------------------|
| | |
| | |
|------------------------------------------------|------------------------|
|------------------------------------------------|------------------------|
|--5---------------------------------------------|------------------------|
|---------------7--------7-------------4---------|------------------------|
|--3------------4--------5-------------6---------|---7--------------------|
|------------------------------------------------|------------------------|
Don't look back, there is no promised land.
|------14---15--17bf--17---15---14--/14------|----14~---------------------|
|--17---7----8--10bf--10----8----7---16--17--|----17~---------------------|
|---9----------------------------------------|----------------------------|
|--------------------------------------------|----------------------------|
|--------------------------------------------|----------------------------|
|--------------------------------------------|----------------------------|
| | |
| | |
|--------------------------------------------|----------------------------|
|--------------------------------------------|----------------------------|
|--5-----------------------------------------|----------------------------|
|---------------7----------7---------4-------|----------------------------|
|--3------------4----------5---------6-------|---7/19~--------------------|
|--------------------------------------------|----------------------------|
Guitar Solo
|--15/19--15--------19--17-15p14-17p15-14~--15p14-------|-------15h17h19p17-|
|------------17-----------------------------------17-15-|-17-19-------------|
|---------------16--------------------------------------|-------------------|
|-------------------------------------------------------|-------------------|
|-------------------------------------------------------|-------------------|
|-------------------------------------------------------|-------------------|
-p15----15h17p15-19p17p15-------22bf--rb22--22-22-22-17-|-20-19-17-15-19-17-|
-----19-------------------19p17-------------------------|-------------------|
--------------------------------------------------------|-------------------|
--------------------------------------------------------|-------------------|
--------------------------------------------------------|-------------------|
--------------------------------------------------------|-------------------|
-15-14-17-15p14-12-15-14-12-10-14-12-10-8h10p8----------------------------|
-----------------------------------------------12h13-12-12~--10h12--------|
--------------------------------------------------------------------------|
--------------------------------------------------------------------------|
--------------------------------------------------------------------------|
--------------------------------------------------------------------------|
|----------------------8--------------------------------------------------|
|--p10p8h10~--/12p8h10---10-12p10p8-7h8-10p8-7-8p7------------------------|
|--------------------------------------------------9p7--------------------|
|------------------------------------------------------10p9p7-------------|
|-------------------------------------------------------------10p9p7---7--|
|--------------------------------------------------------------------0----|
1/2
|-----------------------8-11-127/12----14----15----17----|-17h19b-----22bf-|
|---------------8-10-12--------------12----12----12----12-|----------0------|
|--------7h9-11-------------------------------------------|----------0------|
|-7-9-10--------------------------------------------------|-----------------|
|---------------------------------------------------------|-----------------|
|---------------------------------------------------------|-----------------|
--rb22--22-/20-|-19h20-17h20----20----20----20----20-19-20-17-20----20-----|
---------------|-------------20----19----17----16----------------20----19--|
---------------|-----------------------------------------------------------|
---------------|-----------------------------------------------------------|
---------------|-----------------------------------------------------------|
---------------|-----------------------------------------------------------|
-20----20----20~-------|-------12-------------12----------/17p14-----------|
----17----16-----1715-|-15bf-----15p12----12--------------------15--------|
-----------------------|----------------14-------15p14p12-----------12h14p-|
-----------------------|---------------------------------------------------|
-----------------------|---------------------------------------------------|
-----------------------|---------------------------------------------------|
-----------------|-/12-15p12----------12h15-18p15----15-22bf-12------------|
-----------------|-----------12----12-------------17-------------15p12------|
-12p11-----------|--------------12-------------------------------------14bf-|
-------14--------|----------------------------------------------------------|
----------14-----|----------------------------------------------------------|
-------------12--|----------------------------------------------------------|
-----12--------------------------------|----------------------------12-----|
--12----15p12--------------------------|----------------12----15p12----12--|
--------------15-14p12----14-12--------|----12----14-12----14--------------|
-----------------------14-------14p12--|-14----14--------------------------|
---------------------------------------|-----------------------------------|
---------------------------------------|-----------------------------------|
1/2
--14b--12--------------------------------------|---------------------------|
----------15p12--------------------------------|----------------------12---|
----------------15-14p12-11----12p11-------11--|---------------------------|
----------------------------14-------14-12-----|-14p12-10-14-12p10-9-------|
-----------------------------------------------|---------------------------|
-----------------------------------------------|---------------------------|
--------------------------------------------------------------------------|
--------------------------------------------------------------------------|
--------------------------------------------------------------------------|
-10p9-------9-------------------------------------------------------------|
------12p10---10p9----10p9------------------------------------------------|
-------------------12-------12-10bf---10----------------------------------|
Chorus then fade out.
=======================================================================
h = hammeron Judy Letostak
p = pulloff Internet [email protected]
/ = slide Fidonet 1:202/762
x = ghost note MetalNet 666:666/2
t = tap (right hand) The Music Shop BBS (619)423-4970 24hrs
~ = vibrato * = picked harmonic
bf = bend full tr = trill
rb = release bend p.s. = pick scrape
dive = dive with bar b = bend / step written over note
========================================================================
The Music Shop BBS (619)423-4970 24hrs
Guitar Tab, Bass Tab, Lyrics, Sound Files, Pictures, BRE...LORD...FidoNet...
MetalNet...In a band? Want some exposure? I have a file area for bands
will take anything that can be put on a computer...Lyrics, pictures, sound
files, gig ads...email me or call my bbs. It's free, and access is free.




Ваше мнение



Капча