#----------------------------------PLEASE NOTE---------------------------------#
#This file is the author's own work and represents their interpretation of the #
#song. You may only use this file for private study, scholarship, or research. #
#------------------------------------------------------------------------------##
From: [email protected] (Judy Letostak)
Yngwie Malmsteen
Farewell
from Rising Force
tune to F:
6=F
5=Bb
4=Eb
3=Ab
2=C
1=F
or capo at 1st fret and play up 1/2 step
-------------------|------------------|---------2---3--|---4---------------|
--8---------7---5--|---4------2----4--|---5------------|---5---------------|
-------------------|------------------|----------------|---4---------------|
-------------------|---4--------------|----------------|-------------------|
--7----------------|----------0-------|----------------|-------------------|
-------------------|------------------|---3------------|---4---------------|
trill harmonics------------------------|
--5------------------|-----------0-------|--12---------12-|---------12------|
--5-----5--4-------5-|---------0---------|-------7---7----|-7---7--------7--|
--7------------------|-------0-----------|-----5---7------|---5---7---------|
---------------------|-----4-------------|----------------|-----------------|
--0------------------|---2---------------|----------------|-----------------|
---------------------|-0--------------0--|----------------|-----------------|
harmonics
---------12--------|------7------12-------|-12--------12-------------------|
7---7---------7----|-7------7--------7----|-----7---------12---------------|
--5---7---------5--|---7------5---------5-|--------5------------12---------|
-------------------|----------------------|--------------------------------|
-------------------|----------------------|--------------------------------|
-------------------|----------------------|----------------------------12--|




Ваше мнение



Капча