From: [email protected] (Judy Letostak)
Yngwie Malmsteen "Disciples of Hell"
from Marching Out
[email protected]
tune down 1/2 step
acoustic guitar
|--------------------------------------------------------------------------|
|--------------------------------------------------------------------------|
|--------------------------------------------------------------------------|
|------9---------9---------9---------9---------9---------9---------9-------|
|---10---10---10---10---10---10---10---10---10---10---10---10---10---10----|
|-0---------0---------0---------0---------0---------0---------0---------0--|
|-------------------------------------------------------------|
|-------------------------------------------------------------|
|-------------------------------------------------------------|
|-----7-------7-------7-------7-------7-------10-------10-----|
|---7---7---7---7---7---7---7---7---7---7---7----7---7----7---|
|-0-------0-------0-------0-------0-------0--------0--------0-|
|--------------------------------|-----------------|------------------------
|--------------------------------|-----------------|------------------------
|--------------------------------|-----------------|------------------------
|------9---------9---------9-----|-----4-------4---|-----5-------5-------5--
|---10---10---10---10---10---10s-|---6---6---6---6s|---7---7---7---7---7---7
|-0---------0---------0----------|-0-------0-------|-0-------0-------0------
---------|---------------------------------------------------------|--------
---------|---------------------------------------------------------|--------
---------|---------------------------------------------------------|--------
-----5---|-----5-------5-------5-------5-------5-------4-------4---|----5---
---7---7-|---7---7---7---7---7---7---7---7---7---7---7---7---7---7-|--7---7-
-0-------|-8-------8-------8-------8-------8-------8-------8-------|7-------
-------------------------|---------------------------------|----------------
-------------------------|---------------------------------|----------------
-------------------------|---------------------------------|----------------
-----5-------5-------5---|-----5-------5-------5-------5---|-----4-------4--
---7---7---7---7---7---7-|---7---7---7---7---7---7---7---7-|---7---7---7---7
-7-------7-------7-------|-7-------7-------7-------7-------|-6-------6------
------------------------------------------|-------------------------|-------
------------------------------------------|-------------------------|-------
------------------------------------------|-------------------------|-------
-----4-------4-------4-------4-------4----|-----4-------4-------4---|-----5-
---7---7---7---7---7---7---7---7---7----7-|---7---7---7---7---7---7-|---7---
-6-------6-------6-------6-------6--------|-7-------7-------7-------|-7-----
-------------------|-------------------------|-----------------------------|
-------------------|-------------------------|-----------------------------|
-------------------|-------------------------|-----------------------------|
-------5-------5---|-----5-------5-------5---|------7--------7---------7---|
-7---7---7---7---7-|---7---7---7---7---7---7-|----9---9----9---9-----9---9-|
---7-------7-------|-8-------8-------8-------|-11-------11-------11s-------|
nat harm----
|------------------|-12------------|---------------|-----------------------|
|---------------12-|-----12--------|---------------|-----------------------|
|----------9-12----|----------12---|--11---8---9---|-------5s--------------|
|--------9---------|---------------|---------------|-9s4-------------------|
|-----10-----------|---------------|---------------|-----------------------|
|-s12--------------|---------------|---------------|-----------------------|
|-------0------|-------------------|----------------|-------7---5---3------|
|-----0---0----|-------------------|----------------|-----5----------------|
|---2-------2--|-------------------|-------------4--|---4------------------|
|-1------------|-2-----------------|-----2--4h5-----|-5--------------------|
|--------------|-------2-----------|---2------------|----------------------|
|--------------|------------2h3p2--|-0--------------|----------------------|
|-2---------------|----------------|------------|-----------------7--------|
|-----5--4--4~----|-5----4-----5~--|------------|--------0------8----------|
|-----------------|----------------|------------|------0------9------------|
|-----------------|----------------|------------|----2---------------------|
|-----------------|----------------|------------|--------------------------|
|-----------------|----------------|-0----------|-0------------------------|
|-12--7----------------------|------------------------------|--------------7|
|--------8-------------------|------------------------------|-------0----8--|
|-----------9-------8h9h11p8-|------------------------------|-----0----9----|
|--------------10------------|-7h9h10-7---------------------|---2-----------|
|----------------------------|-----------6h7h9-6------------|---------------|
|----------------------------|--------------------5h7h9--5--|-0-------------|
|-12p7--------15p12----------11-12-14-11-|---------------------------------|
|-------8--0---------12------------------|-10-12-13-10---------------------|
|------------------------14--------------|-------------8-9-11-8--2-4-5s2---|
|----------------------------------------|---------------------------------|
|----------------------------------------|---------------------------------|
|----------------------------------------|---------------------------------|
|--------4s7p4----------|---------8s12----------------|------------10-14p10-
|------5-------5--------|------10------14-10----------|---------10----------
|-1--4-----------4------|----9---------------9--------|s11---12-------------
|------------------7-6--|-10-------------------12-10~-|----12---------------
|-----------------------|-----------------------------|---------------------
|-----------------------|-----------------------------|---------------------
harm 12 fret
--------|-----------------|-10-7h10p7-------|----------------------|--------|
-10-----|-----------3-----|-----------8-----|-------0-------0------|--------|
----11--|-----------------|-----------0--7--|-5--4-----------------|----|
--------|--4-------|-----------------|---------------|--------|
--------|--------------5--|-----------------|----------------------|--------|
--------|-----------------|-----------------|----------------------|--------|
|-----------8-12p8-------|-----1--5s8p5------|-7p3------3p0------3p0-------|
|---------8--------8-----|---1----------6----|-----5--------0--------1-----|
|-------9------------9~--|-2--------------5~-|-------4--------0--------0---|
|----10------------------|-------------------|-----------------------------|
|-10---------------------|-------------------|-----------------------------|
|------------------------|-------------------|-----------------------------|
|-5p2------3p0-----7p3------|------------------------------------|------
|-----4--------0-------5----|--------------8-----------------|------
|-------5----------------x--|----------------9-------9----4------|------
|---------------------------|-------------------------9s----5--------|------
|---------------------------|------------------------------------7---|-7----
|---------------------------|--------------------------------------7-|---3-3
elec in
-----|--0---------------|-------------------------------------|-------------
-----|--0---------------|-------------------------------------|-------------
-----|--0---------------|----------------------------5--------|-------------
-----|--2---------------|----------------------------5--------|-------------
-----|--2---------------|----------------------------3--------|-------------
-7---|--0------xsxsx----|-0--0--0--0--0--0--3--2--0-----------|-0--0--0--0--
-----------------------|----------------------------------|----------------|
-----------------------|----------------------------------|----------------|
----------------9------|----------------------------5-----|-4---4--9~s-----|
----------------9------|----------------------------5-----|-4---4--9~s-----|
----------------7------|----------------------------3-----|-2---6--7~s-----|
-0--0--3--2--0---------|-0--0--0--0--0--0--3--2--0--------|----------------|
|---------------------------------|----------------------------------------|
|---------------------------------|----------------------------------------|
|----------------------------5----|-----------------------------9----------|
|----------------------------5----|-----------------------------9----------|
|----------------------------3----|-----------------------------7----------|
|-0--0--0--0--0--0--3--2--0-------|-0--0--0--0--0--0--3--2--0--------------|
|---------------------------------|----------------------------------|
|---------------------------------|----------------------------------|
|----------------------------5----|--4----4--------------------0--------|
|----------------------------5----|--4----4--------------------------------|
|----------------------------3----|--2----6--------------------------------|
|-0--0--0--0--0--0--3--2--0-------|----------------------------------------|
|---------------------------------|----------------------------------------|
|---------------------------------|----------------------------------------|
|----------------------------5----|-----------------------------9----------|
|----------------------------5----|-----------------------------9----------|
|----------------------------3----|-----------------------------7----------|
|-0--0--0--0--0--0--3--2--0-------|-0--0--0--0--0--0--3--2--0--------------|
|---------------------------------|----------------------------------------|
|---------------------------------|----------------------------------------|
|----------------------------5----|---4-----------4----------9~s-----------|
|----------------------------5----|---4-----------4----------9~s-----------|
|----------------------------3----|---2-----------6----------7~s-----------|
|-0--0--0--0--0--0--3--2--0-------|----------------------------------------|
|---------------------------------|----------------------------------------|
|---------------------------------|----------------------------------------|
|----------------------------5----|-----------------------------9----------|
|----------------------------5----|-----------------------------9----------|
|----------------------------3----|-----------------------------7----------|
|-0--0--0--0--0--0--3--2--0-------|-0--0--0--0--0--0--3--2--0--------------|
|---------------------------------|----------------------------------------|
|---------------------------------|----------------------------------------|
|----------------5----------------|---4-----------4----------9~s-----------|
|----------------5----------------|---4-----------4----------9~s-----------|
|----------------3----------------|---2-----------6----------7~s-----------|
|--0----3--2--0-------------------|----------------------------------------|
In the darkness they will gather conjuring the one
|--------------------------------|---------------------|-------------------|
|--------------------------------|---------------------|-------------------|
|--------------------------------|---------------------|-7-----------7-----|
|--------------------------------|---------------------|-7-----------7-----|
|--------------------------------|---------------------|-5-----------5-----|
|-0---0--0--0--0--0---0--0--0--0-|-0----0---0--0--0--0-|-------------------|
Burning candles incantations
|--------------------------------|------------------|----------------------|
|--------------------------------|------------------|----------------------|
|--------------------------------|-9----------------|9---------------------|
|--------------------------------|-9----------------|9---------------------|
|-3--2--0--3--2--0-----2--3--5~--|-7----------------|7---------------------|
|-------------------x------------|-0----0--0--0--0--|-----0--0--0--0--0--0-|
human sacrifice Getting drunk
|------------------------|--------------------------------|-----------------
|------------------------|--------------------------------|-----------------
|--7--x-x-x-x-x-x---7----|--------------------------------|-----------------
|--7--x-x-x-x-x-x---7----|--------------------------------|-----------------
|--5--x-x-x-x-x-x---5----|-3--2--0--3--2--0-----2--3--5~--|-----------------
|------------------------|-------------------3------------|-0--0--0--0--0--0
from blood not wine pointy daggers shine
--------------|------------------------------|--------------------------|
--------------|------------------------|--------------------------|
-9------------|-9----------------------|-7--------------------7---|
-9------------|-9-------------------------------|-7--x--x--x--x--x--x--7---|
-7------------|-7-------------------------------|-5--5--5--5--5--5--5--5---|
-0------------|---------------------------------|--------------------------|
Out of fire Smoke and brim-
|--------------------------------|-----------------0------|-----------------
|--------------------------------|-----------------0------|-----------------
|--------------------------------|-9---------------9------|-----------------
|--------------------------------|-9---------------9------|-----------------
|-3--2--0--3--2--0-----2--3--5~--|-7---------------7------|-----------------
|-------------------3------------|-0------0--0--0--0------|-0---0--0--0--0--
stone the dreaded one will rise
|----------|--------------------------|------------------------------------|
|----------|--------------------------|------------------------------------|
|----------|-7--------------------7---|------------------------------------|
|----------|-7--x--x--x--x--x--x--7---|------------------------------------|
|----------|-5--5--5--5--5--5--5--5---|-3--2--0--3--2--0--3--2--0--5~------|
|0--0------|--------------------------|------------------------------------|
Pre-chorus
|-------------------------------------|------------------------------------|
|-------------------------------------|------------------------------------|
|-------------------------------------|------------------------------------|
|-------------------------------------|-5p4p2------------------------------|
|----------------------------2--1-----|-------5--4--2--1--2--4-------------|
|-2--2--2--2--2--2--0--2--3--------3--|-------------------------0--2--3----|
Rise...
|-------------------------------------|-------------------------------------|
|-------------------------------------|-------------------------------------|
|-------------------------------------|-3h4p3-------------------------------|
|-------------------------------------|--------5--4--2--------------2--4--5-|
|----------------------------2--1-----|-----------------5--2--4--5----------|
|-2--2--2--2--2--2--0--2--3--------3--|-------------------------------------|
Burn...
|-------------------------------------|------------------------------------|
|-------------------------------------|------------------------------------|
|-------------------------------------|------------------------------------|
|-------------------------------------|-5p4p2------------------------------|
|----------------------------2--1-----|-------5--4--2--1--2--4-------------|
|-2--2--2--2--2--2--0--2--3--------3--|-------------------------0--2--3----|
|-------------------------------------|-------------------------------------|
|-------------------------------------|-------------------------------------|
|-------------------------------------|-3h4p3-------------------------------|
|-------------------------------------|--------5--4--2--------------2--4--5-|
|----------------------------2--1-----|-----------------5--2--4--5----------|
|-2--2--2--2--2--2--0--2--3--------3--|-------------------------------------|
No body knows who's disciples
|-----------------------------------|--------------------------------------|
|-----------------------------------|--------------------------------------|
|-----------------------------------|--------------------------------------|
|-----------------------------------|--------------------------------------|
|-----------------------------------|--------------------------------------|
|-0---0--0--0--0--0--0--0--0--0--0--|-2--2--2--2--2--2--2--2--2--2--2--2---|
of hell
|-------------------------------------|------------------------------------|
|-------------------------------------|------------------------------------|
|-------------------------------------|------------------------------------|
|-------------------------------------|------------------------------------|
|-------------------------------------|------------------------------------|
|-3--3--3--3--3--3--3--3--3--3--3--3--|-5--5--5--5--5--5--5--5--5--5--5--5-|
Father's a priest and he's
|-------------------------------------|------------------------------------|
|-------------------------------------|------------------------------------|
|-------------------------------------|------------------------------------|
|-------------------------------------|------------------------------------|
|-------------------------------------|------------------------------------|
|-7--7--7--7--7--7--7--7--7--7--7--7--|-8--8--8--8--8--8--8--8--8--8--8--8-|
Casting a spell
|-------------------------------------------------|-11h12p11p8--------------
|-------------------------------------------------|------------12p10p8------
|-------------------------------------------------|--------------------11p9-
|-------------------------------------------------|-------------------------
|-------------------------------------------------|-------------------------
|-10--10--10--10--10--10--10--10--10--10--10--10--|-------------------------
No one can
------------------|-------------------------------------------------------|
------------------|-------------------------------------------------------|
-p8--9p8----------|-------------------------------------------------------|
----------10--9~--|------2------------------------------------------------|
------------------|------2------------------------------------------------|
------------------|------0------------------------------------------------|
bstop what's already begun
|--------------------------------------|-------------------------------------|
|--------------------------------------|-------------------------------------|
|--------------------------------------|-------------------------------------|
|--------------------------------------|-------------------------------------|
|--------------------------------------|-------------------------------------|
|-2--2--2--2--2--2--2--2--2--2--2--2---|-3--3--3--3--3--3--3--3--3--3--3--3--|
Worshipping
|------------------------------------|-------------------------------------|
|------------------------------------|-------------------------------------|
|------------------------------------|-------------------------------------|
|------------------------------------|-------------------------------------|
|------------------------------------|-------------------------------------|
|-5--5--5--5--5--5--5--5--5--5--5--5-|-7--7--7--7--7--7--7--7--7--7--7--7--|
Darkness and
|------------------------------------|
|------------------------------------|
|------------------------------------|
|------------------------------------|
|------------------------------------|
|-8--8--8--8--8--8--8--8--8--8--8--8-|
Lucifer's son
|-------------------------------------------------|--------------------------|
|-------------------------------------------------|--------------------------|
|-------------------------------------------------|--------------------------|
|-------------------------------------------------|--------------------------|
|-------------------------------------------------|--------------------------|
|-10--10--10--10--10--10--10--10--10--10--10--10--|11-11-11-11-11-11-11-11-11|
|-----------------------------|--------------------------------------------|
|-----------------------------|--------------------------------------------|
|-----------------------------|----------------------------9---------------|
|-2-----------------------5---|----------------------------9---------------|
|-2-----------------------5---|----------------------------7---------------|
|-0--0--0--0--0--3--2--0--3---|-0--0--0--0--0--0--3--2--0------------------|
|-------------------------------|---------------------------------------|
|-------------------------------|---------------------------------------|
|----------------------------5--|-4----------9--------------------------|
|----------------------------5--|-4----------9-----------------------------|
|----------------------------3--|-2----6~----7-----------------------------|
|-0--0--0--0--0--0--3--2--0-----|------------------------------------------|
|-------------------------------|----------------------------0-------------|
|-------------------------------|----------------------------0-------------|
|----------------------------5--|----------------------------9-------------|
|-2--------------------------5--|----------------------------9-------------|
|-2--------------------------3--|----------------------------7-------------|
|-0-----0--0--0--0--3--2--0-----|-0--0--0--0--0--0--3--2--0----------------|
|------------------------------|-------------------------------------|
|------------------------------|-------------------------------------|
|--------------------------5---|-4-----------------------------------|
|---2----------------------5---|-4---9-------------------------------------|
|---2----------------------3---|-2---6-------------------------------------|
|---0--0--0--0--0--3p2--0------|-------------------------------------------|
Victims of the grand illsion screams of ecstasy
|-------------------------|---------------------------|---------------------|
|-------------------------|---------------------------|---------------------|
|-------------------------|---------------------------|-7------------------7|
|-2-----------------------|---------------------------|-7--x--x--x--x--x-x-7|
|-2-------------------7~--|------------------------7--|-5--5--5--5--5--5-5-5|
|-0--0--0--0--0--0--0-----|-0--0--0--0--0--0--0--0----|---------------------|
Fools are lost in mass confusion
|--------------------------------|----0-----------|----------0-------------|
|--------------------------------|----0-----------|----------0-------------|
|--------------------------------|---------9------|------------------------|
|--------------------------------|---------9------|------------------------|
|-3--2--0--3--2--0-----2--3--5~--|----------------|------------------------|
|-------------------3------------|-0-----------0--|0-0-0-0-0---0-0-0-0-0-0-|
Searching for the key
x pick scrape
|--------------|-------------------------------|
|--------------|-------------------------------|
|-7----x--x----|-------------------------------|
|-7----x--x----|-------------------------------|
|-5----x--x----|-3--2--0--3--2--0-----2--3--5~-|
|--------------|-------------------3-----------|
|-------------------------------------|------------------------------------|
|-------------------------------------|------------------------------------|
|-------------------------------------|------------------------------------|
|-------------------------------------|-5p4p2------------------------------|
|----------------------------2--1-----|-------5--4--2--1--2--4-------------|
|-2--2--2--2--2--2--0--2--3--------3--|-------------------------0--2--3----|
|-------------------------------------|-------------------------------------|
|-------------------------------------|-------------------------------------|
|-------------------------------------|-3h4p3-------------------------------|
|-------------------------------------|--------5--4--2--------------2--4--5-|
|----------------------------2--1-----|-----------------5--2--4--5----------|
|-2--2--2--2--2--2--0--2--3--------3--|-------------------------------------|
No body knows who's disciples
|-----------------------------------|--------------------------------------|
|-----------------------------------|--------------------------------------|
|-----------------------------------|--------------------------------------|
|-----------------------------------|--------------------------------------|
|-----------------------------------|--------------------------------------|
|-0---0--0--0--0--0--0--0--0--0--0--|-2--2--2--2--2--2--2--2--2--2--2--2---|
of hell
|-------------------------------------|------------------------------------|
|-------------------------------------|------------------------------------|
|-------------------------------------|------------------------------------|
|-------------------------------------|------------------------------------|
|-------------------------------------|------------------------------------|
|-3--3--3--3--3--3--3--3--3--3--3--3--|-5--5--5--5--5--5--5--5--5--5--5--5-|
Father's a priest and he's
|-------------------------------------|------------------------------------|
|-------------------------------------|------------------------------------|
|-------------------------------------|------------------------------------|
|-------------------------------------|------------------------------------|
|-------------------------------------|-------9~---------------9~----------|
|-7--7--7--7--7--7--7--7--7--7--7--7--|-8----------------------------------|
Casting a spell
|-------------------------------------------------|------------------------|
|-------------------------------------------------|-------4-7-5-4----------|
|-------------------------------------------------|---4-6---------5-4------|
|-------------------------------------------------|-------------------7-5--|
|-------------12------------------------------12--|------------------------|
|-10--10--10----------------------10--10--10------|11----------------------|
No one can
|------------------------------|
|------------------------------|
|------------------------------|
|--2---------------------------|
|--2---------------------------|
|--0---------0--0--0--0--0--0--|

stop what's already begun
|--------------------------------------|-------------------------------------|
|--------------------------------------|-------------------------------------|
|--------------------------------------|-------------------------------------|
|--------------------------------------|-------------------------------------|
|--------------------------------------|-------------------------------------|
|-2--2--2--2--2--2--2--2--2--2--2--2---|-3--3--3--3--3--3--3--3--3--3--3--3--|
Worshipping
|------------------------------------|-------------------------------------|
|------------------------------------|-------------------------------------|
|------------------------------------|-------------------------------------|
|------------------------------------|-------------------------------------|
|------------------------------------|-------------------------------------|
|-5--5--5--5--5--5--5--5--5--5--5--5-|-7--7--7--7--7--7--7--7--7--7--7--7--|
Darkness and
|------------------------------------|
|------------------------------------|
|------------------------------------|
|------------------------------------|
|------------------------------------|
|-8--8--8--8--8--8--8--8--8--8--8--8-|
Lucifer's son
|-------------------------------------------------|--------------------------|
|-------------------------------------------------|--------------------------|
|-------------------------------------------------|--------------------------|
|-------------------------------------------------|--------------------------|
|-------------------------------------------------|---13----13----13----13-~-|
|-10--10--10--10--10--10--10--10--10--10--10--10--|11----11----11----11------|
|-----------------------------|--------------------------------------------|
|-----------------------------|--------------------------------------------|
|-----------------------------|----------------------------9---------------|
|-2-----------------------5---|----------------------------9---------------|
|-2-----------------------5---|----------------------------7---------------|
|-0--0--0--0--0--3--2--0--3---|-0--0--0--0--0--0--3--2--0------------------|
|-------------------------------|------------------------------------------|
|-------------------------------|------------------------------------------|
|----------------------------5--|-4----------------------------------------|
|----------------------------5--|-4----------------------------------------|
|----------------------------3--|-2----6~----7~s---------------------------|
|-0--0--0--0--0--0--3--2--0-----|------------------------------------------|
|-------------------------------|------------------------------------------|
|-------------------------------|------------------------------------------|
|----------------------------5--|----------------------------9-------------|
|-2--------------------------5--|----------------------------9-------------|
|-2--------------------------3--|----------------------------7-------------|
|-0-----0--0--0--0--3--2--0-----|-0--0--0--0--0--0--3--2--0----------------|
|------------------------------|-------------------------------------|
|------------------------------|-------------------------------------|
|--------------------------5---|-4-----------------------------------|
|---2----------------------5---|-4---9-------------------------------------|
|---2----------------------3---|-2---6-------------------------------------|
|---0--0--0--0--0--3p2--0------|-------------------------------------------|
Guitar solo
|----------7--12p7--------------|------------------------------------------|
|--------8---------8--12p7------|------------------------------------------|
|------9---------------------9--|-8-9-11-8---------------------------------|
|--5-9---------------------9----|----------7-9-10-7------------------------|
|7------------------------------|-------------------6-7-9-6----------------|
|-------------------------------|---------------------------5-7-8-5--------|
|-----------7--12p7------15p12--------|-11-12-14-11-------------------------
|---------8---------8----------12-----|-------------10-12-13-10-------------
|-------9-------------9-----------12--|-------------------------8-9-11-8----
|---5-9-------------------------------|-------------------------------------
|-7-----------------------------------|-------------------------------------
|-------------------------------------|-------------------------------------
-----------|-------12-16p12--16s19--16---------|-20p17--------17p12---------
-----------|----12---------------------17------|-------17-----------13------
-----------|-14---------------------------16~--|----------17-----------14---
-7-9-10-7--|-----------------------------------|----------------------------
-----------|-----------------------------------|----------------------------
-----------|-----------------------------------|----------------------------
-12p8-------------------|-------10-14-10-14s17-14--------------------------|
------10----13p10-------|----10-------------------15-----------------------|
---------9--------9-----|-11-------------------------14~-------------------|
--------------------10--|--------------------------------------------------|
------------------------|--------------------------------------------------|
------------------------|--------------------------------------------------|
|-7h10p7-------------------|-----8-12-8-12s15-12---------|-------13-17-13---
|--------8---8-------------|---8-----------------13------|----13------------
|----------7---7s4-7-4-----|-9----------------------12~--|-14---------------
|----------------------5~--|-----------------------------|------------------
|--------------------------|-----------------------------|------------------
|--------------------------|-----------------------------|------------------
-17s20-17---------|-19p15--------15p12--------15p12----15-14p11----14------|
----------18------|-------17-----------12-----------13----------12---------|
-------------17~--|----------18-----------12-------------------------------|
------------------|--------------------------------------------------------|
------------------|--------------------------------------------------------|
------------------|--------------------------------------------------------|
1 1/2
|-15p12--------19p15--------21b~--|--21b---21b---21b----21b--|-21rb---21b~-|
|-------12-----------17-----------|--------------------------|-------------|
|----------12-----------16--------|--------------------------|-------------|
|---------------------------------|--------------------------|-------------|
|---------------------------------|--------------------------|-------------|
|---------------------------------|--------------------------|-------------|
|-------17----------------17-20-19-17----19-17----|-------17----------------
|-20bf-----20-19-17-19-20-------------20-------20-|-19h20----20-19p17h19-20-
|-------------------------------------------------|-------------------------
|-------------------------------------------------|-------------------------
|-------------------------------------------------|-------------------------
|-------------------------------------------------|-------------------------
-17-20-19-17----19-17----------17----|--------------------------------------
-------------20-------20-20bf-----20-|-19p17-20-19-17----19-17s16----17-16--
-------------------------------------|----------------20----------17--------
-------------------------------------|--------------------------------------
-------------------------------------|--------------------------------------
-------------------------------------|--------------------------------------
---------|-------------19p15-----------------------------|------19-18h19-14-
---------|----------17-------17--------------------------|---17-------------
-17-16~--|-16----16-------------16---16-16-16------------|16----------------
---------|----17------------------------------17-16-14~--|------------------
---------|-----------------------------------------------|------------------
---------|-----------------------------------------------|------------------
-19----19-17-19-15-19-14-19-|----19-19s20-17-20-15-20----20------------------|
----17----------------------|-17----------------------19----16h17h20p17p16-17|
----------------------------|------------------------------------------------|
----------------------------|------------------------------------------------|
----------------------------|------------------------------------------------|
----------------------------|------------------------------------------------|
|---------------0--14-14h18t21p14h18p14-|-14h18t21p15h18p15p12h14h18t21-14--
|-----17bf------0-----------------------|-----------------------------------
|---x-----------------------------------|-----------------------------------
|-x-------------------------------------|-----------------------------------
|---------------------------------------|-----------------------------------
|---------------------------------------|-----------------------------------
--14--------|-------12----------------12h14h15p14p12----12h14|p12p10-10h12p10
------17~---|-15bf-----15-14-12-14h15----------------15------|--------------
------------|------------------------------------------------|--------------
------------|------------------------------------------------|--------------
------------|------------------------------------------------|--------------
------------|------------------------------------------------|--------------
-7h10p9p7-6h9p7p6-9h12p10p9-7h10p9p7-14p12|p10-9h10h12p10p9-s12h15p14p12----
------------------------------------------|------------------------------15-
------------------------------------------|---------------------------------
------------------------------------------|---------------------------------
------------------------------------------|---------------------------------
------------------------------------------|---------------------------------
-----------------------------------|----------------------------------------
-14-12s10-------15-14-12-----------|-----------------12p11------------------
----------12p11----------15-14-12s-|-s11-------------------14-12p11----12p11
-----------------------------------|-----14-12p11-------------------14------
-----------------------------------|--------------14------------------------
-----------------------------------|----------------------------------------
1 1/2
-----------------|--------21brb----p18-----|-------------------------------|
-----------------|---------------------19--|--------------15bf~------------|
-----------------|-------------------------|-18-16-15~---------------------|
-14-12p11--------|-------------------------|-------------------------------|
----------14-12--|-14bf--------------------|-------------------------------|
-----------------|-------------------------|-------------------------------|
|-12----------------12-14h15p14p12-14p12p10-12p10s9-|7-9-7s5----------------
|----15-14-12h14h15---------------------------------|--------8p5-7h8p7p5----
|---------------------------------------------------|-----------------------
|---------------------------------------------------|-----------------------
|---------------------------------------------------|-----------------------
|---------------------------------------------------|-----------------------
* a.h. 1/2
----------------|
-------7b*-dive-|
-7p6p4----------|
----------------|
----------------|
----------------|
Raise your cup and praise the Prince of Darkness
See the truth of the power within the beast
And when the time has come
The gates of hell shall open
repeat 9x
|------------------------------------|-------------------------------------|
|------------------------------------|-------------------------------------|
|------------------------------------|-------------------------------------|
|------------------------------------|-------------------------------------|
|------------------------------------|-------------------------------------|
|-0----0--0--0--0--3--2--0--3--2--0--|-0----0--0--0--0--3--2--0--3--2--0---|
|----------------------------|----------------------------0----------------|
|----------------------------|----------------------------0----------------|
|-------------------------5--|----------------------------9----------------|
|-2-----------------------5--|----------------------------9----------------|
|-2-----------------------3--|----------------------------7----------------|
|-0--0--0--0--0--3--2--0-----|-0--0--0--0--0--0--3--2--0-------------------|
|---------------------------|----------------------------------------------|
|---------------------------|----------------------------------------------|
|-----------------------5---|--4---------------9s--------------------------|
|-2---------------------5---|--4-------9-------9s--------------------------|
|-2---------------------3---|--2-------6-------7s--------------------------|
|-0---0--0--0--3--2--0------|----------------------------------------------|




Ваше мнение



Капча