Yngwie Malmsteen - Caught in the Middle
from Marching Out
Tune down 1/2 Step
[email protected] (Judy Letostak)
[email protected]
FidoNet 1:202/762 The Music Shop BBS (619)423-4970
|-------------|----------------------|--------------------------|--------
|-------------|----------------------|--------------------------|--------
|---x--x------|-4--5-----2--4--------|-2------------------------|-4--5---
|---x--x--2~--|-------2--------2--2--|----2--5--2--4--2-----2~--|-------2
|-------------|----------------------|-------------------5------|--------
|-------------|----------------------|--------------------------|--------

--------------|--------------------------|------------------------------|
--------------|--------------------------|------------------------------|
--2--4--------|-2------------------------|-4--5-----2--4----------------|
--------2--2--|----2--5--2--4--2-----2~--|-------2--------2--2----------|
--------------|-------------------5------|------------------------------|
--------------|--------------------------|------------------------------|
harmonics
|-----------------------------|------|--5-----------7--------------------|
|-----------------------------|------|-----5-----5-----7-----------------|
|-2---------------------------|------|--------5-----------7--------------|
|----2--2--5--2--4--2-----2~--|------|-----------------------2~----------|
|----------------------5------|------|-----------------------------------|
|-----------------------------|------|-----------------------------------|

|----------------------|--------------------------|----------------------|
|----------------------|--------------------------|----------------------|
|-4--5-----2--4--------|--2-----------------------|-4--5-----2--4--------|
|-------2--------2--2--|-----2--5--2--4--2-----2--|-------2--------2--2--|
|----------------------|--------------------5-----|----------------------|
|----------------------|--------------------------|----------------------|

|----------------------------------|----------------------|--------------
|----------------------------------|----------------------|--------------
|-5p4p2----------------------------|-4--5-----2--4--------|-2------------
|--------5p4p2------------------2--|-------2--------2--2--|----2--2--5--2
|---------------5p3p2--------------|----------------------|--------------
|----------------------5p3p2p0-----|----------------------|--------------

--------------|----------------------|----------------------------------|
--------------|----------------------|-------------5p4------------------|
--------------|-4--5-----2--4--------|-------4h5h7-----7p5p4---------9--|
--4--2-----2--|-------2--------2--2--|-4h5h7-----------------7p5p4---9--|
--------5-----|----------------------|-------------------------------7--|
--------------|----------------------|-------------------------------0--|

Verse
||-------------|-------------------------|------------------------------|
||-------------|-------------------------|------------------------------|
||o---9--------|----------------------7--|----------7-------------------|
||o---9--------|----------------------7--|----------7-------------------|
||----7--------|----------------------5--|-5--5--5-------5--5-----------|
||----0--------|-0--0--0--0--0--0--0-----|------------------------------|

|-------------------------|----------------------|----------------------|
|-------------------------|----------------------|----------------------|
|--------7--------7--6----|-----------6-------5--|----------------------|
|--------7--------7--7----|-----------7-------5--|---------------2------|
|--5--5-----5--5-----4----|--4--4--4------4---3--|----3----------2------|
|-------------------------|----------------------|-------3p2-----0------|

|-------------------|------------------|--------------------------------|
|-------------------|------------------|--------------------------------|
|-------------------|-------------9----|------------------9-------------|
|-------------------|---2---------9----|------------------9-------------|
|-------3--2--------|---2---------7----|------------------7-------------|
|-3--5--------5--3--|---0---------0----|------------------0-------------|

|-------------------------|---------------------|------------------------
|-------------------------|---------------------|------------------------
|-------9--------9----7---|-----------7---------|-------7--7--------7----
|-------9--------9----7---|-----------7---------|----------x--------7----
|-------7--------7----5---|--5--5--5------5--5--|--7/9--------5--5-------
|-0--0-----0--0-----------|---------------------|------------------------

-----------|-----------------|------------------|-----------------------|
-----------|-----------------|------------------|-----------------------|
------6----|-------------5---|------------------|-----------------------|
------7----|---7----x----5---|---------------2--|-----------------------|
--5---4----|---4----x----3---|-----3---------2--|---------3--2----------|
-----------|-----------------|---------3p2---0--|---3--5--------5--3----|
Chorus
|-----------------------|---------------------|-------------------------|
|-----------------------|---------------------|-------------------------|
|------------------7----|-----------7---------|--7-----7----------------|
|--2---------------7----|-----------7---------|--7-----7-------------4--|
|--2-----------4---5----|--5--5--5------5--5--|-----5------4---------4--|
|--0-----2--5-----------|---------------------|---------------5--4---2--|

|--------------------|-------------------------|------------------------|
|--------------------|-------------------------|------------------------|
|--------------------|----------------------7--|-----7------7-----------|
|--------------------|----------------------7--|-----7------7-----------|
|--------------------|-------------------4--5--|-----5---5-----5--5-----|
|--2--2--2--2--2--2--|-2--2--2--2--2--5--------|------------------------|

|----------------------------|------------------|--------|--------------|
|----------------------------|------------------|--------|--------------|
|--7-----7-------------------|-----x--p.s------|-------|-----------7--|
|--7-----7----------------4--|-----x-----------|-------|-----------7--|
|-----5---------4---------4--|------------------|--------|-------4---5--|
|------------------5--4---2--|------------------|--------|-2--5---------|

|---------------------|--------------------|----------------------------|
|---------------------|--------------------|----------------------------|
|----------7----------|--7-----------------|----------------------------|
|----------7----------|--7--------------4--|--------------x-------------|
|-5--5--5-------5--5--|--5-----4--------4--|--------------x--x----------|
|---------------------|-----------5--4--2--|--2--2--2--2--2--2----------|

|----------------------------|----------------------|-------------------|
|----------------------------|----------------------|-------------------|
|------------------------7~--|-----------7---x---9--|----------9--9--x--|
|------------------------7~--|-----------7---x---9--|----------9--9--x--|
|--------------------4---5~--|--5--5--5------x---7--|-7--7--7--------x--|
|--2--2--2--2--2--5----------|----------------------|-------------------|

|-----------|----------------|------------------------|------------------
|-----------|----------------|------------------------|------------------
|---4-------|----------------|---4--5-----2--4--------|-2----------------
|---4-------|--------2~------|---------2--------2--2--|----2--5--2--4--2-
|---2-------|----------------|------------------------|------------------
|-----------|----------------|------------------------|------------------

-----------|--------------------|--------------------------------------||
-----------|--------------------|-7h8p7p5------------------------------||
-----------|--4--5-----2--4-----|---------9p8p7p5-7p5p4----------9----o||
------2~---|--------2--------2--|-----------------------7p5p4----9----o||
---5-------|--------------------|-----------------------------7--7-----||
-----------|--------------------|--------------------------------0-----||
End 2 & 3 Interlude
|--------------|-------------|--------------|---------------------------|
|--------------|-------------|--------------|---------------------------|
|---4~---------|-------------|--------------|---------------------------|
|---4~---------|----/x------|--------------|---------------------------|
|---2~---------|----/x------|---7~-----6---|----7----9---10~----------|
|--------------|-------------|--------------|---------------------------|

|---------------|--------------------|-------------|---------------------|
|---------------|--------------------|-------------|---------------------|
|---------------|--------------------|-------------|---------------------|
|---------------|--------------------|-------------|---------------------|
|--6~------4----|---6----7---7/9~----|---7~----6---|---7---9----10~-----|
|---------------|--------------------|-------------|---------------------|
1 1/2
|-21b--~~~~~----|-20-19-17----------------------------------|-15~--14~---|
|---------------|----------20p1917-15----------------------|------------|
|---------------|----------------------16p14----------------|------------|
|---------------|----------------------------17-16-14-13/16-|------------|
|---------------|-------------------------------------------|------------|
|---------------|-------------------------------------------|------------|
Repeat 1st part of interlude

|-------------------------------------------------|-11-12-14-11/12-14-15-
|-------------------------------------------12-13-|----------------------
|-------------------------11-12----11-12-14-------|----------------------
|-------------------13-14-------14----------------|----------------------
|----------12-14-15-------------------------------|----------------------
|-12-14-15----------------------------------------|----------------------

-12/14-15-17-14/15-17-19-15/17-19-|-20p19p17----------------19p14--------
----------------------------------|----------20-19-17-16-16-------16-16--
----------------------------------|--------------------------------------
----------------------------------|--------------------------------------
----------------------------------|--------------------------------------
----------------------------------|--------------------------------------

---------------|----------------------------|---------18p14-21p17--------
--17-16-16-13--|----------------------------|---19p14-------------19-----
---------------|--16-14-----------------x/x/|18----------------------18--
---------------|--------17p16p1413~--------|----------------------------
---------------|----------------------------|----------------------------
---------------|----------------------------|----------------------------
1/2
-17p14---------|-21p16--------17p14--------------|-------16-17-16-19-17--
-------14--14--|-------18-----------14-----------|-17-19-----------------
------------x--|----------18-----------x--13b~---|-----------------------
---------------|---------------------------------|-----------------------
---------------|---------------------------------|-----------------------
---------------|---------------------------------|-----------------------

--16-19--17-16----16-|-17-16----------16-17-1921-19-1716-19-17-1614--|
------x--------19----|-------19-17-19-----------------------------------|
---------------------|--------------------------------------------------|
---------------------|--------------------------------------------------|
---------------------|--------------------------------------------------|
---------------------|--------------------------------------------------|

|-16h17p16p14----16-14-------14----------------------|----------15/16p14-
|-------------17-------17-15----17-15-14-17-15-14----|-15p1412----------
|-------------------------------------------------16-|-------------------
|----------------------------------------------------|-------------------
|----------------------------------------------------|-------------------
|----------------------------------------------------|-------------------
1/2
-p12---------------------------------|-14p12p10--------------16/17p16p14-
-----15p14p12----14p12------------x--|----------14-12p10-----------------
--------------14-------14-13b~----x--|-------------------11--------------
-------------------------------------|-----------------------------------
-------------------------------------|-----------------------------------
-------------------------------------|-----------------------------------

-13-----------|----------------------------------------|----------------|
-----15p14p12--|----------------------------------------|----------------|
---------------|-14-13-1110----------------------------|-11--13--13bf~--|
---------------|-------------12-11-------------------11-|----------------|
---------------|-------------------14-12-11----11-12----|----------------|
---------------|----------------------------14----------|----------------|

|-----------------|----------------------------------10p9-12p11p10p9-|---
|-----------------|--------9----10p9--12p10/14p12-10-----------------|12-
|-11--13--13bf----|---x/11---11--------------------------------------|---
|-----------------|--------------------------------------------------|---
|-----------------|--------------------------------------------------|---
|-----------------|--------------------------------------------------|---

-10p9----------|--9--14p9-16p9-14p9-17p9h14p9-16p14p9-17p13/21~---------|
-------12bf----|--------------------------------------------------------|
---------------|--------------------------------------------------------|
---------------|--------------------------------------------------------|
---------------|--------------------------------------------------------|
---------------|--------------------------------------------------------|
1/2
|-21b~--21-17-19-21-19-16-19-16-17-19-|-17p1614-17-14-16-17-16p14-------
|-------------------------------------|----------------------------17----
|-------------------------------------|----------------------------------
|-------------------------------------|----------------------------------
|-------------------------------------|----------------------------------
|-------------------------------------|----------------------------------

--16-14---14p12p10-|-10h12p10p9x-9h10p9p7-----------------------------|
--------------------|-----------------------10p9p75--------------------|
--------------------|--------------------------------7p6p4--------------|
--------------------|--------------------------------------6---x-------|
--------------------|------------------------------------------x-------|
--------------------|---------------------------------------------------|
keyboard solo
Tremolo picking
|-------|-------------|-----------|---------|--------|------------------|
|-------|---5---------|---5-------|---7-----|---8----|------------------|
|-------|---4---------|---5-------|---7-----|---9----|------------------|
|--2----|---5---------|---5-------|---7-----|---9----|----x--------2---|
|--2----|-------------|-----------|---------|--------|----xp.s---------|
|--0----|-------------|-----------|---------|--------|------------------|
out
|-----------------------|-----------------------------------------------|
|-----------------------|-----------------------------------------------|
|--4--5-----2--4--------|-2---------------------9----------------------|
|--------2--------2--2--|----2--5--2--4--2------9----------------------|
|-----------------------|-------------------5---7----------------------|
|-----------------------|-----------------------------------------------|

=======================================================================
h = hammeron Judy Letostak
p = pulloff Internet [email protected]
/ = slide Fidonet 1:202/762
x = ghost note MetalNet 282:100/2
t = tap (right hand) The Music Shop BBS (619)423-4970 24hrs
~ = vibrato * = picked harmonic
bf = bend full tr = trill
rb = release bend p.s. = pick scrape
dive = dive with bar b = bend / step written over note
= repeat bar + = natural harmonic
========================================================================
The Music Shop BBS (619)423-4970 24hrs
Tons of music files, tab, lyrics, pictures, sound files....LORD, BRE
Falcon's Eye (interplanetary). Internet Email and USENET. Unsigned/
Indie band support, free of cost ask for more details.




Ваше мнение



Капча