Yngwie Malmsteen "Bedroom Eyes"
from Eclipse
[email protected] Judy Letostak

||-----------|---------------------------|---------------------------------|
||-----------|---------------------------|---------------------------------|
||-----------|---------------------------|---------------------------------|
||-----------|---------------------------|---------------------------------|
||--5tr7~----|-5h7------------5--5--5h7--|-5h7------------5--5-------------|
||-----------|-----0-0--0-5h7------------|-----0-0--0-5-7-------3~---------|
|----------------------------|-----------------------------||
|----------------------------|-----------------------------|| repeat 2x
|----------------------------|-----------------------------||
|----------------------------|-----------------5-----------||
|-5h7-------------5--5-5h7~--|-5h7---------------7-5-------||
|------0-0--0-5h7------------|------0-0--0-5-7-------7-3~--||
last time
|----------------|
|----------------|
|----------------|
|----2-----------|
|----2-----------|
|----0-----12\---|
1. Come on baby, what's on you mind? You're stumbling into darkness
2. Over and over then we do it again I haven't seen a stop sign
Verse
||----------------------------|-------------------------|-------------------
||----------------------------|-------------------------|-------------------
||----------------------------|-------------------------|-------------------
||-5--------------------------|-------------------------|-------------------
||-5h7--------------5-5-5h7~--|-5h7------------5-5p0----|-5h7-----------5---
||------0--0--0-5-7-----------|-----0-0--0-5-7-------3~-|-----0-0-0-5-7-----
like you're running blind Hey! can't you see we've been foolin around
since I don't know when Up and down this lonely street, guess I'll
---------|------------------------------|----------------------------------|
---------|------------------------------|----------------------------------|
---------|------------------------------|----------------------------------|
---------|-----------------5------------|----------------------------------|
-5-5h7~--|-5h7---------------7-5--------|-5h7------------5-5-5h7~----------|
---------|------0-0--0-5-7--------7-3~--|-----0-0--0-5-7-------------------|
this same old graveyard on the same playground
Is there any way to stop this merry go round?
|----------------------------|------------------------|---------------------
|----------------------------|------------------------|---------------------
|----------------------------|------------------------|---------------------
|----------------------------|------------------------|--------------5------
|-5h7-------------5--5p0-----|5h7------------5-5-5h7~-|5h7-------------7-5--
|-----0-0--0-5-7---------3~--|----0-0--0-5-7----------|----0-0-0-5-7--------
-------|--------------------------------------------------------------------
-------|--------------------------------------------------------------------
-------|--------------------------------------------------------------------
-------|--------------------------------------------------------------------
-------|--------------------------------------------------------------------
-7-3~--|--------------------------------------------------------------------
By my nature I can tell who you are
Bridge
|------------------|-------------|--------------------------|---------------
|------------------|-------------|--------------------------|---------------
|-5--------7--7~---|-5--------7--|--------------------------|---------------
|-5--------7--7~---|-5--------7--|--------------------------|---------------
|-0--0--0--0-------|-0--0--0-----|5h7------------5-5-5tr7-5-|-5h7-----------
|------------------|-------------|----0-0--0-5h7------------|-----0-0--0-5-7
Through all lies it's in
-------------|------------------|-------------|----------------------------|
-------------|------------------|-------------|----------------------------|
-------------|-5--------7--7~---|-5--------7--|-5------------0-------------|
-------------|-5--------7--7~---|-5--------7--|-5-----3--4---0-------------|
--5--5p0-----|-0--0--0--0-------|-0--0--0-----|-3--------------------------|
---------3~--|------------------|-------------|----0--1--2---3-------------|
your bedroom eyes There's no innocence
|------------------|-----------------------------|-------------------------|
|------------------|-----------------------------|-------------------------|
|----5*--w/bar-----|-------0---------------------|------0----------------2-|
|------------------|--0h2--0-----0h2-----2-------|-0h2--0-----0h2--------2-|
|------------------|--0h2--------0h2-----0-------|-0h2--------0h2----3-----|
|------------------|----------0-------0------3~--|---------0-------0-------|
in your bedroom eyes baby baby There's no self defense
|--------------|---------------------------|---------------------------|
|--------------|---------------------------|---------------------------|
|--------------|-------0-------------------|-------0----------------2--|
|--5---7---7---|-0h2---2-----0h2-----2-----|-0h2---2-----0h2-----2--0--|
|--3---4---5---|-0h2---------0h2-----0-----|-0h2---------0h2-----3-----|
|--------------|----------0-------0-----3--|----------0-------0--------|
|---------------------------|
|---------------------------|
|-------0-------------------|
|-0h2---2-----0h2-----2-----|
|-0h2---------0h2-----0-----|
|----------0-------0-----3--|
end 1
|--------------|------------------------------||
|--------------|------------------------------||
|--------------|------------------------------||
|--5---7---7---|-2----------------------------||
|--3---4---5---|-0----------------------------||
|--------------|------------------------------||

for your bedroom eyes
end 2
|---------------------|-----------------------------------------------------|
|---------------------|-----------------------------------------------------|
|---------------2-----|-----------------------------------------------------|
|--5-----7------0-----|-----------------------------------------------------|
|--3-----4------0-----|-----------------------------------------------------|
|---------------------|---0-dive-w/bar--------------------------------------|
guitar solo
w/wah
|------------------------------|------------------------|-------------------
|------------------------------|------------------------|-------------------
|------------------------------|------------------------|-------------------
|------------------------------|------------------------|-------------------
|--------0h2-----0h2--2-0------|-----0h2----0h2-2p0-----|-----0h2-----0h2-2p0
|--2--2-------2------------2p0-|-2-2-----2----------2p0-|-2-2------2--------
-----|--------------x--x------x--x-------|---------------------------------|
-----|--------------x--x------x--x-------|---------------------------------|
-----|--------------------x-x------x--x--|-14-----14--------14-------14~---|
-----|-----------------------------------|-14-x-x-14-x-x-14-14-14-x--------|
-----|-----0h2---------------------------|---------------------------------|
-2p0-|-2-2------2------------------------|---------------------------------|
1/4
|----------------------------------------|---------------------------------|
|-----------------17bf-rb17-14----14~----|---------------------------------|
|-14-----16-14b----------------16--------|-14-x-x---14---------14------14~-|
|----x-x------------------------------16-|--------x----x-x-x-x----14-x-----|
|----------------------------------------|---------------------------------|
|----------------------------------------|---------------------------------|
1/2 1 1/2
|--------------------------------|-21b~--21-20-19-17-19h20p19p17-|-19\-7h8p7
|---------------17---------------|-------------------------------|----------
|-14-----14--------16b--rb14-----|-------------------------------|----------
|----x-x----x-x--------------x-x-|-------------------------------|----------
|--------------------------------|-------------------------------|----------
|--------------------------------|-------------------------------|----------
-p5------------2-----------|--------------------------------|---------------
----7p5----------5p2-------|-------2---2----2---2---2-2-----|---------------
--------0-4bf--------4-2~--|---4h5---5----5---5---5-----5-4-|-2-4p2---2h4p2-
---------------------------|-4------------------------------|-------4-------
---------------------------|--------------------------------|---------------
---------------------------|--------------------------------|---------------
----------------------|---------------------------|-------------------------
----------------------|---------------------------|----------------14-------
-h4-4bf--2~w/bar--p0--|-14bf---14bf--rb14-11-14~--|-------14-16h17----16h17-
----------------------|---------------------------|-14/16-------------------
----------------------|---------------------------|-------------------------
----------------------|---------------------------|-------------------------
----------------------------------------------|----14-16h17p16p14-16p14-----
-14-14-17----14-17----14-17----14-17----14-16-|-17----------------------17--
----------17-------17-------17-------17-------|-----------------------------
----------------------------------------------|-----------------------------
----------------------------------------------|-----------------------------
----------------------------------------------|-----------------------------
-14----14----------14-------------14-18p14-19p14|h20p14-21p14-20p14-19p14---
----17----17p14-------14-17----14---------------|-------------------------17
----------------17----------17------------------|---------------------------
------------------------------------------------|---------------------------
------------------------------------------------|---------------------------
------------------------------------------------|---------------------------
--14-14---------------|-----------------------------|----------------------|
-----------14---------|-----------------------------|15bf------------------|
--------17-----0-16~--|-14bf--14bf--14-12~-----14-12|-----14bf-14-12~------|
----------------------|---------------------12------|-----------------14\--|
----------------------|-----------------------------|----------------------|
----------------------|-----------------------------|----------------------|
|-------------------------15-|-17bf-18-17bf-17-15~-\-0-|-------15-15--------
|-------------------15/17----|-----------------------0-|-15h17-------12h15--
|-------12----14-12----------|-------------------------|--------------------
|-12h14----14----------------|-------------------------|--------------------
|----------------------------|-------------------------|--------------------
|----------------------------|-------------------------|--------------------
-------|----------------15p12--------------------------12----|-15p12--------
-------|-------12-15p12-------15p12----12-15p12----12--15p12-|-------15p12--
-14bf--|-rb14-----------------------15----------15-----------|--------------
-------|-----------------------------------------------------|--------------
-------|-----------------------------------------------------|--------------
-------|-----------------------------------------------------|--------------
-----12----------15p12---------------------------|-------/17-14------------|
--------15p12h15-------15p12---------------------|--------------15---------|
--14-------------------------15-14p12----12-14bf-|-12~\------------14p0----|
--------------------------------------14---------|-------------------------|
-------------------------------------------------|-------------------------|
-------------------------------------------------|-------------------------|
Ooh, whoa, come on baby~ What's on your mind?
|-------------------------|-------------|----------------|-----------------|
|--15bf---15b-15-15-15-15-|-15bf--rb15--|----------------|-----------------|
|-------------------------|-------------|----------------|-----------------|
|-------------------------|-------------|----------------|-----------------|
|-------------------------|-------------|----------------|-----------------|
|-------------------------|-------------|----------------|-----------------|
Guess I'll see you around (verse riff)
Guitar solo
|-/14---/14--|-14-14-15-12--12-10-10-10-10-\7-7-7--|------0-----------------
|------------|-------------------------------------|--------3-0-------------
|-/11---/11--|-11-11-12--9---9--7--7--7--7-\4-4-4--|-2bf--------2bf-rb2p0---
|------------|-------------------------------------|------------------------
|------------|-------------------------------------|------------------------
|------------|-------------------------------------|------------------------
-------|------------12-----------------------------------|-15bf-------------
-------|---------12-12------12-12-15-12------------------|------15bf-rb15---
-------|-12-14bf-------14bf-------------15p14-12----14p0-|------------------
--2/14-|-----------------------------------------14------|------------------
-------|-------------------------------------------------|------------------
-------|-------------------------------------------------|------------------
------------------------------------|--------------------------14-15p|14----
----------15----12------------------|-----------------14-15-17-------|------
-14-14-12----14----12-14-12~-w/bar--|-\--/12-14h15-16----------------|------
------------------------------------|--------------------------------|------
------------------------------------|--------------------------------|------
------------------------------------|--------------------------------|------
---------------------------------------------------------------------------|
-17bf-rb17p15-15p12-12h15-12----12----12-----------------------------------|
-----------------------------15----15----15-14-15-14p12----14-12-11--------|
--------------------------------------------------------14----------14-----|
---------------------------------------------------------------------------|
---------------------------------------------------------------------------|
1 1/2 1/4
|---------------------------------------------|-19b--19b--rb19--18-17-15b--|
|---------------------------------------------|----------------------------|
|-12p11----11---------------------------------|----------------------------|
|-------14----14p12----14---------------------|----------------------------|
|-------------------14----12\11-12bf--0--12\--|----------------------------|
|-------------------------------------0--12\--|----------------------------|
1/4
|----17----15bp17-17-15-----------|-------12---------12------12------------|
|-17----17--------------17p15bf~--|----12---------12----15~--12-12---------|
|---------------------------------|-14-------14bf-------------------14~----|
|---------------------------------|----------------------------------------|
|---------------------------------|----------------------------------------|
|---------------------------------|----------------------------------------|
|-------------------12h15p12-14-12----0------------------------------------|
|----------12h14-15----------------15-12h14--------------------------------|
|-12-14-15----------------------------------15-12h15-12-14-12----12p11-----|
|-------------------------------------------------------------14-------14--|
|--------------------------------------------------------------------------|
|--------------------------------------------------------------------------|
|----------------------------------------------------|----------------------
|----------------------------------------------------|----------------------
|----------------------------------------------12-12-|-fade out-------------
|-12-12-14-12p11-12p11----11-11----------12h14-------|----------------------
|----------------------14-------14-12p11-------------|----------------------
|----------------------------------------------------|----------------------
h hammeron
p pulloff
tr trill
b bend
bf bend full
rb release bend
* natural harmonic
/ slide up
\ slide down
w/bar with bar vibrato or dive
~ vibrato
x no note mute the string




Ваше мнение



Капча