Yngwie Malmsteen - As Above, So Below
from Rising Force
tune down 1/2 step
[email protected] (Judy Letostak)
||--------------|--------|---------|----------------------------------||
||o-------------|--------|---------|-0-------------------------------o||
||o-----0-------|--------|---------|----3--2--0---------0------------o||
||--------------|---4-/--|-/8------|-------------4-------------4------||


|---------------------|----------------------|---------|---------------|
|---------------------|----------------------|---------|---------------|
|-0--2--0--2----3--2--|--3--5-3-5----6-5-6~--|---------|---------7----|
|---------------------|----------------------|--0------|---------------|

Verse 2x

||--------------------------------|--------|-----------------------1--1-1-|
||o-------------------------------|--------|--0--0-0-2--2-2-3--3-3--------|
||o---0--0-0-0--0-0-0--0-0-0--0-0-|----%---|------------------------------|
||--------------------------------|--------|------------------------------|


|-2--2-2-------------------------|------------------------------|------|
|--------2--2-2------------------|------------------------------|------|
|----------------3--3-3-2---2-2--|--0--0-0-0--0-0-0--0-0-0--0-0-|---%--|
|--------------------------------|------------------------------|------|


|-----------------------1-1-1-|-2--2-2-----------------------|----------
|-0--0-0-2--2-2-3--3-3--------|--------2--2-2----------------|----------
|-----------------------------|---------------3--3-3-2--2-2--|-0--0-0-0-
|-----------------------------|------------------------------|----------


---------------------|-----------------------------|--------------------
---------------------|-----------------------------|--------------------
--0-0-0--0-0-0--0-0--|-----------------------------|-3--3-3-3--3-3-3--3-
---------------------|-4--4-4-4--4-4-4--4-4-4--4-4-|--------------------


-----------------|-----------------------|------------------------------|
-----------------|-0---------------------|------------------------------|
-3-3--3-3-3--3-3-|----3--2--0------------|-0--0-0-0--0-0-0--0-0-0--0-0--|
-----------------|-------------4------0--|------------------------------|


|------------------------------|-----------------------------|----------
|------------------------------|-----------------------------|-0--------
|------------------------------|-3--3-3-3--3-3-3--3-3-3--3-3-|----3--2--
|-4--4-4-4--4-4-4--4-4-4--4-4--|-----------------------------|----------


-------------|---------------------|-------------------|------|-------||
-------------|---------------------|-------------------|------|------o||
--0----------|--0-----0--2---0--2--|--3-2-3-5--3-5-6~--|------|--7--o||
-----4----0--|-----4---------------|-------------------|--0---|-------||
Interlude
play 2times============================================================
|-------------------------------|---------------------------------------|
|-------------------------------|---------------2-2-2-2-----------------|
|-0--0-0--0--0-0-0--0-0-0-2-3-0-|-----------2-2-------------------------|
|-------------------------------|-4--4-4-4---------------4-4-4-4--------|


|------------------------------------|-2-2-2-2--------------------------|
|-3-3-3-3--------------------3-3-3-3-|---------2-2-2-2------------------|
|-------------------2-2-2-2----------|------------------3-3-3-3-0-0-0-0-|
|----------4-4-4-4-------------------|----------------------------------|


|---------------------------------|------------------------------------|
|-4-4-4-4-1-1-1-1-----------------|-----------------2---2-2-2-2--------|
|-----------------3-3-3-3-0-0-0-0-|------------------------------------|
|---------------------------------|-0----------------------------------|

Guitar Solo play 8times

||----------------------------------|---------------------------------||
||o---------------------------------|----------------0--0-0-2--2-2---o||
||o---0--0-0-0--0-0-0--0-0-0--0-----|--------------------------------o||
||-------------------------------3--|-1--1-1-1--1-1-------------------||


Interlude Reprise
play 2times===========================================================
|-----------------------------|----------------------------------------|
|-----------------------------|-------------2-2-2-2--------------------|
|-0-0-0-0--0-0-0--0-0-0-2-3-0-|---------2-2----------------------------|
|-----------------------------|-4-4-4-4--------------4-4-4-4-----------|


|--------------------------------------|-2-2-2-2--------------------------|
|-3-3-3-3---------------------3-3-3-3--|----------2-2-2-2-----------------|
|--------------------2-2-2-2-----------|-------------------3-3-3-3-0-0-0-0|
|-----------4-4-4-4--------------------|----------------------------------|


|---------------------------------|------------------------------------|
|-4-4-4-4-1-1-1-1-----------------|----------------2-------------------|
|-----------------3-3-3-3-0-0-0-0-|------------------------------------|
|---------------------------------|-0----------------------------------|


||------------------|--------|---------|------------------------------||
||o-----------------|--------|---------|--0--------------------------o||
||o----0------------|--------|---------|------3--2--0-----------0----o||
||------------------|---4-/--|---/8----|---------------4-----------4--||


|--------------------|---------------------|---------------|-----------|
|--------------------|---------------------|---------------|-/14~------|
|-0----2-0-2----3-2--|-3---5-3-5--6-5-6~---|-----------7/--|-----------|
|--------------------|---------------------|-0-------------|-----------|
play 4x
||--------------------------------|------------------------------------|
||o-------------------------------|------------------------------------|
||o---0--0-0-0--0-0-0--0-0-0--0-0-|------------------------------------|
||--------------------------------|-4--4-4-4--4-4-4--4-4-4--4-4--------|

1.2.3=================================
|------------------------------|--------------------------------------||
|------------------------------|--0----------------------------------o||
|--3--3-3-3--3-3-3--3-3-3--3-3-|-----3--2--0-------------------------o||
|------------------------------|--------------4---------0-------------||


|------------------------|------------------------|--------------------|
|-0----------------------|------------------------|--------------------|
|----3--2--0-------------|-0-------0--2------0--2-|-3--2-3-5--3-5-6~---|
|-------------4----0--4--|------4-----------------|--------------------|


|------------------------|---------------------------------------------|
|------------------------|---------------------------------------------|
|------------------------|---0-----------------------------------------|
|---0--------------------|---------------------------------------------|


=======================================================================
h = hammeron Judy Letostak
p = pulloff Internet [email protected]
/ = slide Fidonet 1:202/762
x = ghost note MetalNet 182:100/2
t = tap (right hand) The Music Shop BBS (619)423-4970 24hrs
~ = vibrato * = picked harmonic
bf = bend full tr = trill
rb = release bend p.s. = pick scrape
dive = dive with bar b = bend / step written over note
% = repeat bar + = natural harmonic
========================================================================
The Music Shop BBS (619)423-4970 24hrs
Tons of music files, tab, lyrics, pictures, sound files....LORD, BRE
Falcon's Eye (interplanetary). In a band? I have several areas to feature
your band's bio's, lyrics, pictures...Email or call my bbs for more info.
Gossamer Axe, Wilfred N. and the Grown Men, Porcupine 9, Natasha's Ghost,
Nation of Lies...Join the ranks, this service is absolutely FREE!!!!!!!!!
no ratios, no cost!!!




Ваше мнение



Капча