From: [email protected] (Judy Letostak)
Yngwie Malmsteen "Anguish and Fear"
from Marching Out tune down 1/2 step
[email protected]
* artificial harmonic
fig1
|------------------------|------------------------|------------------------|
|------------------------|------------------------|------------------------|
|------------------------|------------------------|------------------------|
|------------------------|------------------------|----------------2-----3-|
|-------0--3--2--0-------|----2--5--2--3-----2----|----3--2--5--3-----5----|
|-0--1--------------1--0-|-4--------------5-----4-|-5----------------------|
|------------------------|---------------------|---------------------------||
|------------------------|---------------------|---------------------------||
|----2-------------------|------2--5--4p2------|----4--7--4--5--4h5p4-----5||
|-2-----5--3--2----------|-2h3-------------3p2-|-6---------------------7---||
|----------------5--3--2-|---------------------|---------------------------||
|------------------------|---------------------|---------------------------||
fig2
|----------------------------------|---------------------------------------|
|--10~--------8~-------6~----------|-------5~------------------------------|
|----------------------------------|-------------------7-----------5\------|
|----------------------------------|---------------------------------------|
|----------------------------------|---------------------------------------|
|----------------------------------|---------------------------------------|
| | |
| | |
|----------------------------------|---------------------------------------|
|----------------------------------|---------------------------------------|
|--10~--------9~-------7~----------|--------5~---------4-------------------|
|----------------------------------|--------------------------------7\-----|
|----------------------------------|---------------------------------------|
|----------------------------------|---------------------------------------|
|------------------------|-----------------------------|--------------------
|------------------------|-----------------------------|--------------------
|------------------------|-----------------------------|--------------------
|-------7--10--9p7-------|-----9--12--9--10------9-----|-----10--9--12--10--
|-7--8--------------8--7-|-11----------------12-----11-|-12-----------------
|------------------------|-----------------------------|--------------------
-----------|---------------------------|------------------------|-----------
-----------|----10--8------------------|------------------------|-----------
-9------10-|-9---------10--9--7--------|------------------------|-----------
----12-----|---------------------10--9-|-------7--10--9p7-------|----9--12--
-----------|---------------------------|-7--8--------------8--7-|-11--------
-----------|---------------------------|------------------------|-----------
------------------|
------------------|
------------------|
--9--10p9------10-|
-----------12-----|
------------------|
Repeat fig2

|-----8--12------8--12------8-|-12--8--10------8------------|-12h13p12p10---
|-10---------10---------10----|------------12-----10--12--8-|---------------
|-----------------------------|-----------------------------|---------------
|-----------------------------|-----------------------------|---------------
|-----------------------------|-----------------------------|---------------
|-----------------------------|-----------------------------|---------------
-------------------------------|-------------------------------------------|
-13p12p10s9--------------------|-(9)s10p9----------------------------------|
------------12p10--9-----------|----------12--10p9------10p9---------------|
----------------------12p10--9-|--------------------12--------12--10p9-----|
-------------------------------|----------------------------------------11-|
-------------------------------|-------------------------------------------|
1. No more will I do all the things that I've
2. soul had wandered thru the years of despair
|------------------------|------------------------|-------------------------|
|------------------------|------------------------|-------------------------|
|------------------------|------------------------|-------------------------|
|------------------------|------------------------|-------------------------|
|-0--0--0--0--0--0--0--0-|-0--0--0--0--0--0--0--0-|-0--0--0--0--0--0--0--0--|
|------------------------|------------------------|-------------------------|
done I'll live by the nature of
eyes without expression
|------------------------|------------------------|------------------------|
|------------------------|------------------------|------------------------|
|------------------------|-------------2----------|-------------2----------|
|------------------------|-------------2----------|-------------2----------|
|----------0--3--2--0----|-0--0--0--0--0-----0--0-|-0--0--0--0--0-----0--0-|
|-0--1--3--------------3-|------------------------|------------------------|
moon and the sun I've talked to a
told to beware for soldiers of
|------------------------|------------------------|------------------------|
|------------------------|------------------------|------------------------|
|------------------------|------------------------|-------------2----------|
|------------------------|------------------------|-------------2----------|
|-0--0--0--0--0--0--0--0-|----------0--3--2--0----|-0--0--0--0--0----------|
|------------------------|-0--1--3--------------3-|------------------------|
stranger whose soul'd gone away he
fortune have searched low and high to
|------------------------|------------------------|-------------------------|
|------------------------|------------------------|-------------------------|
|------------------------|------------------------|-------------------------|
|------------------------|------------------------|-------------------------|
|-0--0--0--0--0--0--0--0-|-0--0--0--0--0--0--0--0-|----------0--3--2--0-----|
|------------------------|------------------------|-0--1--3--------------3--|
warned me 'bout the danger I'd been in if I'd stayed
find they've forgotten to rest and to die
|---------|--------------|------------------------|------------------------|
|---------|--------------|------------------------|------------------------|
|-2-------|-2---2--------|------------------------|------------------------|
|-2-------|-2---2--------|------------------------|------------------------|
|-0-------|-0---0---0--0-|-0--0--0--0----0--0--0--|----------0--3--2--0----|
|---------|--------------|------------------------|-0--1--3--------------3-|
|horus
|------------------|------------------------|------------------------------|
|------------------|------------------------|------------------------------|
|-------2----------|------------------------|----------4-------------------|
|-------2----------|------------------------|----------5-------------------|
|--0----0-----0--0-|-0--0--0--0--0--0--0--0-|--0----------------0--0-------|
|------------------|------------------------|------------------------------|
| Anguish and | fear | |
| | | |
|------------------|------------------------|------------------------------|
|-------13~--------|-(13)~------------------|----------12~-----------------|
|-------14~--------|-(14)~------------------|----------12~-----------------|
|------------------|------------------------|------------------------------|
|------------------|------------------------|------------------------------|
|------------------|------------------------|------------------------------|
|------------------------|-----------------|-------------------------------|
|------------------------|-----------------|-------------------------------|
|------------------------|-----2-----------|-------------------------------|
|------------------------|-----3-----------|-------------------------------|
|-0--0--0--0--0--0--0--0-|-0---------0--0--|-0--0--0--0--0--0--0--0--------|
|------------------------|-----------------|-------------------------------|
| | | |
| is roaming | my mind | |
|------------------------|-----------------|-------------------------------|
|-(12)~------------------|-----10~---------|--(10)~------------------------|
|-(12)~------------------|-----10~---------|--(10)~------------------------|
|------------------------|-----------------|-------------------------------|
|------------------------|-----------------|-------------------------------|
|------------------------|-----------------|-------------------------------|
|---------------------|-------------------------|--------------------------|
|---------------------|-------------------------|--------------------------|
|---------------------|-------------------------|--------2-----------------|
|------4--------------|-------------------------|--------2-----------------|
|------5-----0--0-----|-0--0--0--0--0--0--0--0--|--0--------------0--0-----|
|-0-------------------|-------------------------|--------------------------|
| | | |
| | | Shed an iron |
|---------------------|-------------------------|--------------------------|
|------12~------------|------(12)~--------------|--------13~---------------|
|------12~------------|------(12)~--------------|--------14~---------------|
|---------------------|-------------------------|--------------------------|
|---------------------|-------------------------|--------------------------|
|---------------------|-------------------------|--------------------------|
|------------------------|-----------------|-------------------------------|
|------------------------|-----------------|-------------------------------|
|------------------------|-----4-----------|-------------------------------|
|------------------------|-----5-----------|-------------------------------|
|-0--0--0--0--0--0--0--0-|-0---------0--0--|-0--0--0--0--0--0--0--0--------|
|------------------------|-----------------|-------------------------------|
| | | |
| tear | | I'm |
|------------------------|-----------------|-------------------------------|
|-(13)~------------------|-----12~---------|--(12)~------------------------|
|-(14)~------------------|-----12~---------|--(12)~------------------------|
|------------------------|-----------------|-------------------------------|
|------------------------|-----------------|-------------------------------|
|------------------------|-----------------|-------------------------------|
|----------------|---------------------|----------------|------------------|
|----------------|---------------------|----------------|------------------|
|-------2--------|---------------------|----4-----------|------------------|
|-------3--------|---------------------|----5-----------|------------------|
|--0-------0--0--|-0--0--0--0--0--0--0-|-0---------0--0-|-0-0-0-0-0-0-0-0--|
|----------------|---------------------|----------------|------------------|
| | | | |
| | | | |
|----------------|---------------------|----------------|------------------|
|-------10~------|---------------------|----12~---------|------------------|
|-------10~------|---------------------|----12~---------|------------------|
|----------------|---------------------|----------------|------------------|
|----------------|---------------------|----------------|------------------|
|----------------|---------------------|----------------|------------------|
|-----8--12------8--12------8-|-12--8--10------8------------|-12h13p12p10---
|-10---------10---------10----|------------12-----10--12--8-|---------------
|-----------------------------|-----------------------------|---------------
|-----------------------------|-----------------------------|---------------
|-----------------------------|-----------------------------|---------------
|-----------------------------|-----------------------------|---------------
-------------------------------|-------------------------------------------|
-13p12p10s9--------------------|-(9)s10p9----------------------------------|
------------12p10--9-----------|----------12--10p9------10p9---------------|
----------------------12p10--9-|--------------------12--------12--10p9-----|
-------------------------------|----------------------------------------11-|
-------------------------------|-------------------------------------------|
2. His
|--------------------------------|-----------------------------------------|
|--------------------------------|-----------------------------------------|
|--------------------------------|-----------------------------------------|
|--------------------------------|-----------------------------------------|
|---12~--------------------------|-----------------------------------------|
|--------------------------------|-----------------------------------------|
play fig 1
Solo
|-----------------------13p12p10----------|-----------------20bf~----------|
|-----------------10-12----------13p12p10-|-s12p10p9-----------------------|
|---------9-10-12-------------------------|----------10p9------------------|
|-9-10-12---------------------------------|--------------------------------|
|-----------------------------------------|--------------------------------|
|-----------------------------------------|--------------------------------|
|-20-17-19-20-19-17-19-16-17-|-19-17-16--------------------12h13p12p10-----|
|----------------------------|----------18-15-17-18-17-15\-----------------|
|----------------------------|---------------------------------------------|
|----------------------------|---------------------------------------------|
|----------------------------|---------------------------------------------|
|----------------------------|---------------------------------------------|
|----------------------------------|-------------------------|-------------|
|-13p12p10-12p10p9-----------------|-------------------------|-------------|
|------------------10p9-9\---------|-------------------------|-------------|
|--------------------------7h9-7p6-|-------9p7p6-------------|-------------|
|----------------------------------|-8p7p5-------8p7p5-8p7p5-|-------------|
|----------------------------------|-------------------------|-8p7p5s6p0---|
Keyboard solo
|----------------------|----------------|---------------|------------------|
|----------------------|----------------|---------------|------------------|
|----------------------|----------------|---------------|------------------|
|----------------------|----------------|---------------|------------------|
|----------------------|----------------|---------------|------------------|
|----------------------|----------------|---------------|------------------|
|--------------------------------------------|------------------------------
|-----------------10h12p10p9-----------------|-12p10p9------------10p9------
|---------9-10-12------------12p10p9---------|---------12p10p9---------12p10
|-9-10-12----------------------------12p10p9-|-----------------12-----------
|--------------------------------------------|------------------------------
|--------------------------------------------|------------------------------
----------|-12h13p12p10----------16p13----16\19-16----|-16p13----16\19p16---
----------|-------------13p12p10-------15----------18-|-------15------------
-p9-------|-------------------------------------------|---------------------
----12-10-|-------------------------------------------|---------------------
----------|-------------------------------------------|---------------------
----------|-------------------------------------------|---------------------
1 1/2 1 1/2 Keyboard solo
----19\21b---|-21bf-------21b-----|---------------|------------------------|
-18----------|----------x---------|---------------|------------------------|
-------------|--------x-----------|---------------|------------------------|
-------------|--------------------|---------------|------------------------|
-------------|--------------------|---------------|------------------------|
-------------|--------------------|---------------|------------------------|
1 1/2
|--21b~-----|--21p19*~------|--------------------|------------|------------|
|-----------|---------------|------15--------15--|-----15dive-|-15bfdive---|
|-----------|---------------|-14bf------14bf-----|-14b--------|------------|
|-----------|---------------|--------------------|------------|------------|
|-----------|---------------|--------------------|------------|------------|
|-----------|---------------|--------------------|------------|------------|
Keyboard Solo
|--------------------|-----------------|-----------------|-----------------|
|--------------------|-----------------|-----------------|-----------------|
|--------------------|-----------------|-----------------|-----------------|
|--------------------|-----------------|-----------------|-----------------|
|--------------------|-----------------|-----------------|-----------------|
|--------------------|-----------------|-----------------|-----------------|
w/keyboards
|-------------------|-----------------|----------------------13--12--------|
|-------------------|-10~---------9~--|-------10--9--13--12----------------|
|-(9)s10~------9----|-----------------|10--9-------------------------------|
|-------------------|-----------------|------------------------------------|
|-------------------|-----------------|------------------------------------|
|-------------------|-----------------|------------------------------------|
1 1/2
|-17--16--20--19--21b~\----|-20-19-17-16-17-19-20-19-17-16-17-19-|-20-19----
|--------------------------|-------------------------------------|----------
|--------------------------|-------------------------------------|----------
|--------------------------|-------------------------------------|----------
|--------------------------|-------------------------------------|----------
|--------------------------|-------------------------------------|----------
1/2
-17\16---------------------------|-----------------------------------------|
--------18-17----15--------------|-----------------------------------------|
---------------------17-16-14-13-|--\10~------------9b---------------------|
---------------------------------|-----------12----------------------------|
---------------------------------|-----------------------------------------|
---------------------------------|-----------------------------------------|
Repeat chorus
|-----8--12------8--12------8-|-12--8--10------8------------|-12h13p12p10---
|-10---------10---------10----|------------12-----10--12--8-|---------------
|-----------------------------|-----------------------------|---------------
|-----------------------------|-----------------------------|---------------
|-----------------------------|-----------------------------|---------------
|-----------------------------|-----------------------------|---------------
-------------------------------|-------------------------------------------|
-13p12p10s9--------------------|-(9)s10p9----------------------------------|
------------12p10--9-----------|----------12--10p9------10p9---------------|
----------------------12p10--9-|--------------------12--------12--10p9-----|
-------------------------------|----------------------------------------11-|
-------------------------------|-------------------------------------------|
|------------------------------|
|------------------------------|
|------------------------------|
|------------------------------|
|---12~------------------------|
|------------------------------|
From alt.guitar.tab Wed Feb 1 12:08:17 1995
From: [email protected] (Judy Letostak)
Date: Tue, 31 Jan 1995 00:14:24 GMT
Newsgroups: alt.guitar.tab,alt.music.yngwie
Subject: Yngwie Malmsteen "Anguish and Fear"
Yngwie Malmsteen "Anguish and Fear"
from Marching Out tune down 1/2 step
[email protected]
* artificial harmonic
fig1
|------------------------|------------------------|------------------------|
|------------------------|------------------------|------------------------|
|------------------------|------------------------|------------------------|
|------------------------|------------------------|----------------2-----3-|
|-------0--3--2--0-------|----2--5--2--3-----2----|----3--2--5--3-----5----|
|-0--1--------------1--0-|-4--------------5-----4-|-5----------------------|
|------------------------|---------------------|---------------------------||
|------------------------|---------------------|---------------------------||
|----2-------------------|------2--5--4p2------|----4--7--4--5--4h5p4-----5||
|-2-----5--3--2----------|-2h3-------------3p2-|-6---------------------7---||
|----------------5--3--2-|---------------------|---------------------------||
|------------------------|---------------------|---------------------------||
fig2
|----------------------------------|---------------------------------------|
|--10~--------8~-------6~----------|-------5~------------------------------|
|----------------------------------|-------------------7-----------5\------|
|----------------------------------|---------------------------------------|
|----------------------------------|---------------------------------------|
|----------------------------------|---------------------------------------|
| | |
| | |
|----------------------------------|---------------------------------------|
|----------------------------------|---------------------------------------|
|--10~--------9~-------7~----------|--------5~---------4-------------------|
|----------------------------------|--------------------------------7\-----|
|----------------------------------|---------------------------------------|
|----------------------------------|---------------------------------------|
|------------------------|-----------------------------|--------------------
|------------------------|-----------------------------|--------------------
|------------------------|-----------------------------|--------------------
|-------7--10--9p7-------|-----9--12--9--10------9-----|-----10--9--12--10--
|-7--8--------------8--7-|-11----------------12-----11-|-12-----------------
|------------------------|-----------------------------|--------------------
-----------|---------------------------|------------------------|-----------
-----------|----10--8------------------|------------------------|-----------
-9------10-|-9---------10--9--7--------|------------------------|-----------
----12-----|---------------------10--9-|-------7--10--9p7-------|----9--12--
-----------|---------------------------|-7--8--------------8--7-|-11--------
-----------|---------------------------|------------------------|-----------
------------------|
------------------|
------------------|
--9--10p9------10-|
-----------12-----|
------------------|
Repeat fig2

|-----8--12------8--12------8-|-12--8--10------8------------|-12h13p12p10---
|-10---------10---------10----|------------12-----10--12--8-|---------------
|-----------------------------|-----------------------------|---------------
|-----------------------------|-----------------------------|---------------
|-----------------------------|-----------------------------|---------------
|-----------------------------|-----------------------------|---------------
-------------------------------|-------------------------------------------|
-13p12p10s9--------------------|-(9)s10p9----------------------------------|
------------12p10--9-----------|----------12--10p9------10p9---------------|
----------------------12p10--9-|--------------------12--------12--10p9-----|
-------------------------------|----------------------------------------11-|
-------------------------------|-------------------------------------------|
1. No more will I do all the things that I've
2. soul had wandered thru the years of despair
|------------------------|------------------------|-------------------------|
|------------------------|------------------------|-------------------------|
|------------------------|------------------------|-------------------------|
|------------------------|------------------------|-------------------------|
|-0--0--0--0--0--0--0--0-|-0--0--0--0--0--0--0--0-|-0--0--0--0--0--0--0--0--|
|------------------------|------------------------|-------------------------|
done I'll live by the nature of
eyes without expression
|------------------------|------------------------|------------------------|
|------------------------|------------------------|------------------------|
|------------------------|-------------2----------|-------------2----------|
|------------------------|-------------2----------|-------------2----------|
|----------0--3--2--0----|-0--0--0--0--0-----0--0-|-0--0--0--0--0-----0--0-|
|-0--1--3--------------3-|------------------------|------------------------|
moon and the sun I've talked to a
told to beware for soldiers of
|------------------------|------------------------|------------------------|
|------------------------|------------------------|------------------------|
|------------------------|------------------------|-------------2----------|
|------------------------|------------------------|-------------2----------|
|-0--0--0--0--0--0--0--0-|----------0--3--2--0----|-0--0--0--0--0----------|
|------------------------|-0--1--3--------------3-|------------------------|
stranger whose soul'd gone away he
fortune have searched low and high to
|------------------------|------------------------|-------------------------|
|------------------------|------------------------|-------------------------|
|------------------------|------------------------|-------------------------|
|------------------------|------------------------|-------------------------|
|-0--0--0--0--0--0--0--0-|-0--0--0--0--0--0--0--0-|----------0--3--2--0-----|
|------------------------|------------------------|-0--1--3--------------3--|
warned me 'bout the danger I'd been in if I'd stayed
find they've forgotten to rest and to die
|---------|--------------|------------------------|------------------------|
|---------|--------------|------------------------|------------------------|
|-2-------|-2---2--------|------------------------|------------------------|
|-2-------|-2---2--------|------------------------|------------------------|
|-0-------|-0---0---0--0-|-0--0--0--0----0--0--0--|----------0--3--2--0----|
|---------|--------------|------------------------|-0--1--3--------------3-|
|horus
|------------------|------------------------|------------------------------|
|------------------|------------------------|------------------------------|
|-------2----------|------------------------|----------4-------------------|
|-------2----------|------------------------|----------5-------------------|
|--0----0-----0--0-|-0--0--0--0--0--0--0--0-|--0----------------0--0-------|
|------------------|------------------------|------------------------------|
| Anguish and | fear | |
| | | |
|------------------|------------------------|------------------------------|
|-------13~--------|-(13)~------------------|----------12~-----------------|
|-------14~--------|-(14)~------------------|----------12~-----------------|
|------------------|------------------------|------------------------------|
|------------------|------------------------|------------------------------|
|------------------|------------------------|------------------------------|
|------------------------|-----------------|-------------------------------|
|------------------------|-----------------|-------------------------------|
|------------------------|-----2-----------|-------------------------------|
|------------------------|-----3-----------|-------------------------------|
|-0--0--0--0--0--0--0--0-|-0---------0--0--|-0--0--0--0--0--0--0--0--------|
|------------------------|-----------------|-------------------------------|
| | | |
| is roaming | my mind | |
|------------------------|-----------------|-------------------------------|
|-(12)~------------------|-----10~---------|--(10)~------------------------|
|-(12)~------------------|-----10~---------|--(10)~------------------------|
|------------------------|-----------------|-------------------------------|
|------------------------|-----------------|-------------------------------|
|------------------------|-----------------|-------------------------------|
|---------------------|-------------------------|--------------------------|
|---------------------|-------------------------|--------------------------|
|---------------------|-------------------------|--------2-----------------|
|------4--------------|-------------------------|--------2-----------------|
|------5-----0--0-----|-0--0--0--0--0--0--0--0--|--0--------------0--0-----|
|-0-------------------|-------------------------|--------------------------|
| | | |
| | | Shed an iron |
|---------------------|-------------------------|--------------------------|
|------12~------------|------(12)~--------------|--------13~---------------|
|------12~------------|------(12)~--------------|--------14~---------------|
|---------------------|-------------------------|--------------------------|
|---------------------|-------------------------|--------------------------|
|---------------------|-------------------------|--------------------------|
|------------------------|-----------------|-------------------------------|
|------------------------|-----------------|-------------------------------|
|------------------------|-----4-----------|-------------------------------|
|------------------------|-----5-----------|-------------------------------|
|-0--0--0--0--0--0--0--0-|-0---------0--0--|-0--0--0--0--0--0--0--0--------|
|------------------------|-----------------|-------------------------------|
| | | |
| tear | | I'm |
|------------------------|-----------------|-------------------------------|
|-(13)~------------------|-----12~---------|--(12)~------------------------|
|-(14)~------------------|-----12~---------|--(12)~------------------------|
|------------------------|-----------------|-------------------------------|
|------------------------|-----------------|-------------------------------|
|------------------------|-----------------|-------------------------------|
|----------------|---------------------|----------------|------------------|
|----------------|---------------------|----------------|------------------|
|-------2--------|---------------------|----4-----------|------------------|
|-------3--------|---------------------|----5-----------|------------------|
|--0-------0--0--|-0--0--0--0--0--0--0-|-0---------0--0-|-0-0-0-0-0-0-0-0--|
|----------------|---------------------|----------------|------------------|
| | | | |
| | | | |
|----------------|---------------------|----------------|------------------|
|-------10~------|---------------------|----12~---------|------------------|
|-------10~------|---------------------|----12~---------|------------------|
|----------------|---------------------|----------------|------------------|
|----------------|---------------------|----------------|------------------|
|----------------|---------------------|----------------|------------------|
|-----8--12------8--12------8-|-12--8--10------8------------|-12h13p12p10---
|-10---------10---------10----|------------12-----10--12--8-|---------------
|-----------------------------|-----------------------------|---------------
|-----------------------------|-----------------------------|---------------
|-----------------------------|-----------------------------|---------------
|-----------------------------|-----------------------------|---------------
-------------------------------|-------------------------------------------|
-13p12p10s9--------------------|-(9)s10p9----------------------------------|
------------12p10--9-----------|----------12--10p9------10p9---------------|
----------------------12p10--9-|--------------------12--------12--10p9-----|
-------------------------------|----------------------------------------11-|
-------------------------------|-------------------------------------------|
2. His
|--------------------------------|-----------------------------------------|
|--------------------------------|-----------------------------------------|
|--------------------------------|-----------------------------------------|
|--------------------------------|-----------------------------------------|
|---12~--------------------------|-----------------------------------------|
|--------------------------------|-----------------------------------------|
play fig 1
Solo
|-----------------------13p12p10----------|-----------------20bf~----------|
|-----------------10-12----------13p12p10-|-s12p10p9-----------------------|
|---------9-10-12-------------------------|----------10p9------------------|
|-9-10-12---------------------------------|--------------------------------|
|-----------------------------------------|--------------------------------|
|-----------------------------------------|--------------------------------|
|-20-17-19-20-19-17-19-16-17-|-19-17-16--------------------12h13p12p10-----|
|----------------------------|----------18-15-17-18-17-15\-----------------|
|----------------------------|---------------------------------------------|
|----------------------------|---------------------------------------------|
|----------------------------|---------------------------------------------|
|----------------------------|---------------------------------------------|
|----------------------------------|-------------------------|-------------|
|-13p12p10-12p10p9-----------------|-------------------------|-------------|
|------------------10p9-9\---------|-------------------------|-------------|
|--------------------------7h9-7p6-|-------9p7p6-------------|-------------|
|----------------------------------|-8p7p5-------8p7p5-8p7p5-|-------------|
|----------------------------------|-------------------------|-8p7p5s6p0---|
Keyboard solo
|----------------------|----------------|---------------|------------------|
|----------------------|----------------|---------------|------------------|
|----------------------|----------------|---------------|------------------|
|----------------------|----------------|---------------|------------------|
|----------------------|----------------|---------------|------------------|
|----------------------|----------------|---------------|------------------|
|--------------------------------------------|------------------------------
|-----------------10h12p10p9-----------------|-12p10p9------------10p9------
|---------9-10-12------------12p10p9---------|---------12p10p9---------12p10
|-9-10-12----------------------------12p10p9-|-----------------12-----------
|--------------------------------------------|------------------------------
|--------------------------------------------|------------------------------
----------|-12h13p12p10----------16p13----16\19-16----|-16p13----16\19p16---
----------|-------------13p12p10-------15----------18-|-------15------------
-p9-------|-------------------------------------------|---------------------
----12-10-|-------------------------------------------|---------------------
----------|-------------------------------------------|---------------------
----------|-------------------------------------------|---------------------
1 1/2 1 1/2 Keyboard solo
----19\21b---|-21bf-------21b-----|---------------|------------------------|
-18----------|----------x---------|---------------|------------------------|
-------------|--------x-----------|---------------|------------------------|
-------------|--------------------|---------------|------------------------|
-------------|--------------------|---------------|------------------------|
-------------|--------------------|---------------|------------------------|
1 1/2
|--21b~-----|--21p19*~------|--------------------|------------|------------|
|-----------|---------------|------15--------15--|-----15dive-|-15bfdive---|
|-----------|---------------|-14bf------14bf-----|-14b--------|------------|
|-----------|---------------|--------------------|------------|------------|
|-----------|---------------|--------------------|------------|------------|
|-----------|---------------|--------------------|------------|------------|
Keyboard Solo
|--------------------|-----------------|-----------------|-----------------|
|--------------------|-----------------|-----------------|-----------------|
|--------------------|-----------------|-----------------|-----------------|
|--------------------|-----------------|-----------------|-----------------|
|--------------------|-----------------|-----------------|-----------------|
|--------------------|-----------------|-----------------|-----------------|
w/keyboards
|-------------------|-----------------|----------------------13--12--------|
|-------------------|-10~---------9~--|-------10--9--13--12----------------|
|-(9)s10~------9----|-----------------|10--9-------------------------------|
|-------------------|-----------------|------------------------------------|
|-------------------|-----------------|------------------------------------|
|-------------------|-----------------|------------------------------------|
1 1/2
|-17--16--20--19--21b~\----|-20-19-17-16-17-19-20-19-17-16-17-19-|-20-19----
|--------------------------|-------------------------------------|----------
|--------------------------|-------------------------------------|----------
|--------------------------|-------------------------------------|----------
|--------------------------|-------------------------------------|----------
|--------------------------|-------------------------------------|----------
1/2
-17\16---------------------------|-----------------------------------------|
--------18-17----15--------------|-----------------------------------------|
---------------------17-16-14-13-|--\10~------------9b---------------------|
---------------------------------|-----------12----------------------------|
---------------------------------|-----------------------------------------|
---------------------------------|-----------------------------------------|
Repeat chorus
|-----8--12------8--12------8-|-12--8--10------8------------|-12h13p12p10---
|-10---------10---------10----|------------12-----10--12--8-|---------------
|-----------------------------|-----------------------------|---------------
|-----------------------------|-----------------------------|---------------
|-----------------------------|-----------------------------|---------------
|-----------------------------|-----------------------------|---------------
-------------------------------|-------------------------------------------|
-13p12p10s9--------------------|-(9)s10p9----------------------------------|
------------12p10--9-----------|----------12--10p9------10p9---------------|
----------------------12p10--9-|--------------------12--------12--10p9-----|
-------------------------------|----------------------------------------11-|
-------------------------------|-------------------------------------------|
|------------------------------|
|------------------------------|
|------------------------------|
|------------------------------|
|---12~------------------------|
|------------------------------|




Ваше мнение



Капча