The Prophet
Yes
Transcribed by Justin Benz
Organ, Violins 1:34 Guitar Enters
G---|-----------------|-----------------|-----------------|---------------------
D---|-----------------|-----------------|-----------------|---------------------
A---|-----------------|-----------------|-----------------|---------------------
E---|-----------------|--5--------------|-----------------|--0--3--5--5---------

Drums
G---|-----5--7--7-----|-----------------|--------------------|------------------
D---|--7--------------|-----------------|--3-----------------|------------------
A---|-----------------|-----------------|-----3--------------|------------------
E---|-----------------|--1--------------|--------1--1--------|------------------

1:58
G---|--------------------------|--------------------------|---------------------
D---|--------------------------|--------------------------|---------------------
A---|--------------------------|--------------------------|---------------------
E---|--1--1--1--1--1--1--1--1--|--1--1--1--1--1--1--1--1--|--1--1--1--1--1------


G-----------|--20-----17-------------------|-------------------------|----------
D-----------|----------------18-----15-----|-------------------------|----------
A-----------|------------------------------|--18-----15--------------|--8-------
E---1--1/---|------------------------------|----------------16---8--|----------


G------------------------|------------------------------|-----------------------
D---10-----10-----10-----|--10-----10-----10-----10-----|--10-----10--10--10----
A-------8------8------8--|------8------8------8------8--|------8----------------
E------------------------|------------------------------|-----------------------


G-----------------|--20-----17----------------|---------------------------------
D---10--10--10----|----------------18-----15--|---------------------------------
A---------------8/|---------------------------|--18-----15----------------------
E-----------------|---------------------------|----------------16------8x-----


G---|--------------------------|--------------------------------------|---------
D---|--------------------------|--------------------------------------|---------
A---|--------------------------|--------------------------------------|---------
E---|--4--4--4--4--4--4--4--4--|--4--4--4--4--4--4--4--4--4--4--4--4--|--4------


G------------------------|--------------------------|--------------|------------
D------------------------|--------------------------|--------------|------------
A------------------------|--------------------------|--------------|------------
E---4--4--4--4--4--4--4--|--4--4--4--4--4--4--4--4--|--4-----------|--1---------


G---------------------|--------------------------|----------------------|-------
D---------------------|--------------------------|----------------------|-------
A---------------------|--------------------------|----------------------|-------
E---------1--1--1--1--|--1--1--1--1--1--1--1--1--|--1--1--1--1--1--1--1/|-------

Guitar Solo
G---20-----17-------------------|----------------------------|------------------
D-----------------18-----15-----|----------------------------|------------------
A-------------------------------|--18-----15---------------6|--3---------------
E-------------------------------|----------------16-----8----|------------------

2:42
G------|-----------------|-----------------|------------------------------------
D------|-----------------|-----------------|------------------------------------
A------|--1--------------|--4--------------|-----------------7-----7-----7------
E------|-----------------|-----------------|--5-----5--5--5---------------------

2x
G---------||-------------------------------------||--||-------------------------
D---------||*-----------------------------------*||--||*------------------------
A------7--||*-----------------7-----7-----7--7--*||--||*------------------------
E---------||---5-----5--5--5---------------------||--||---5-----5--5--5---------

6x
G----------------------------||--------------------------------||---------------
D---------------------------*||--------------------------------||*--------------
A------7-----7--7--7-----7--*||--------3-----------3-----------||*--------------
E---5------------------------||--3-----------1-----------1--3--||---5-----5-----

2x
G-------------------------------------||----------------------------------------
D------------------------------------*||--9-----7-------------------------------
A---------------7-----7--7--7-----7--*||--------------9-----7-------------------
E---5--5-----5------------------------||--------------------------9-----7-------

2x
G---||----------------------------------------------||--------------------------
D---||*--------------------------------------------*||--------------------------
A---||*-----------------------7-----7--7--7-----7--*||--------3-----------3-----
E---||---5-----5--5--5-----5------------------------||--3-----------1-----------

3:18
G------------|--9-----------------|--------------------|------------------------
D------------|--------9--5--------|--------------------|------------------------
A------------|-----------------7--|-----------------2--|--3-----------4---------
E------1--3--|--------------------|--7-----3--0--------|--------5---------------


G---------|------------9-----(7)h9--7---------------|-------------------|-------
D---------|----------------------------9------------|-------------------|-------
A---5--6--|--7-----10---------------------10-----7--|-------------------|-------
E---------|-----------------------------------------|--7-----3/8--------|--5----

3:36
G---------------|-----------------------|-----------------------------|---------
D---------------|-----------------5-----|--5--------------------------|---------
A---------------|-----------------------|-----3--4--5-----5--5--5--5--|--7------
E---------------|--3-----3--3--3--------|-----------------------------|---------


G------------------------------|--------------------------------||--------------
D------------------------------|--------------------------------||*-------------
A------7--7--7-----------7-----|--7-----------7-----------7-----||*-------------
E---------------0-----0-----0--|--------0--0--------0--0-----0--||---5-----5----

2x
G-------------------------------------||----------------------------------------
D------------------------------------*||--(7)h9--(7)h9-----9p7------------------
A---------------7-----7--7--7-----7--*||------------------------9--7------------
E---5--5-----5------------------------||---------------------------------5------

2x
G---||----------------------------------------------||--------------------------
D---||*--------------------------------------------*||--------------------------
A---||*-----------------------7-----7--7--7-----7--*||--------3-----------3-----
E---||---5-----5--5--5-----5------------------------||--3-----------1-----------

2x
G------------||----------------------------------------------||-----------------
D------------||*--------------------------------------------*||--(7)h9--(7)-----
A------------||*-----------------------7-----7--7--7-----7--*||-----------------
E------1--3--||---5-----5--5--5-----5------------------------||-----------------


G----------------------------|-----------------------------------|--------------
D---h9-----7-----------------|-----------------------------------|--------------
A----------------9--7--------|--5-----------7-----7--7--7-----7--|--------------
E-------------------------5--|-----5-----5-----------------------|--5-----5-----


G---------------------------|-----------------------------------------|---------
D---------------------------|-----------------------------------------|---------
A---------7-----7--7--7--7--|-----------------7-----7--7--7--7--7--7--|---------
E---5--5--------------------|--5-----5--5--5--------------------------|--3------

4:15
G------------------------|---------/14--12---------14--12------------|----------
D------------------------|------------------14-------------14--14---|--7--5----
A------3-----------3-----|-------------------------------------------|----------
E------------1-----------|-------------------------------------------|----------


G------------------------|-----------------|-----------------------|------------
D------------------------|-----------------|-----------7-----------|--19-------
A---7--5-----------------|-----------------|-----------------------|------------
E---------7-----5-----3--|--0--------------|--3-----------5--------|------------


G------------------|-----------------------|------------------------------------
D---14-------------|-----------------------|--5---------------------------------
A-------12---------|--12---------12-----12|--------0--------------------6------
E--------------12--|---------12------------|-----------------5--5--8--8---------

4:38
G------|------------------(8)h10-----------------|------------------(8)h10------
D------|------/10-----10-------------(8)h10--10--|------/10-----10--------------
A---7--|--8--------------------------------------|--8---------------------------
E------|-----------------------------------------|------------------------------


G------(8)h10-----|--------------------------------|----------------------------
D-----------------|-----------------6--------------|--------10------------------
A-----------------|-----------8-----------5--6--7--|--8-------------------------
E-----------------|--9-----------------6-----------|---------------9p8-----1----


G---------|-----------------------------|---------------------------------------
D---------|--------3-----3--------------|--------3--4--6------------------------
A---------|--3--------------------3-----|--4-----------------------5--5--6------
E------1--|-----------------1-----------|-----------------6-----6---------------


G------------|----------------------10------------|---------------10------------
D------------|--------10-----10------------10-----|--------10------------10-----
A---6--7--7--|--8--8------8-----------------------|--8--------------------------
E------------|------------------------------------|-----------------------------


G-------|--------------------------------------|--------------------------------
D------|--------5-----5-----------------------|--------------------------------
A-------|-----------------3-----5-----5--5--5--|--------------------------------
E-------|--3-----------------------------------|--0-----0-----0-----0-----------

2x
G---||---14--14--14--14--14--14--14--14--14--14--14--14---||--12-----9----------
D---||*--------------------------------------------------*||--------------------
A---||*--------------------------------------------------*||--------------------
E---||----------------------------------------------------||--------------------

5:14 Bass Out 5:25
G-----------------------------|-----------------|-----------------|-------------
D---12-----11-----9-----7-----|-----------------|-----------------|-------------
A-----------------------------|--0--------------|-----------------|--------3----
E-----------------------------|-----------------|-----------------|--3----------

Bass Out (Again) 5:39
G------------------------|--------------------|---------------------------------
D------------------------|--------------------|---------------------------------
A------------3-----------|--------------------|--------3-----------3------------
E------1-----------1--3--|--------------------|--3-----------1-----------1------


G------|--------------------------|--------------------------|------------------
D------|--------7--7--5-----------|--------------------------|------------------
A------|-----------------7--7--7--|--------------7-----7--7--|------------------
E---3--|--5-----------------------|--5-----5--5--------------|--5-----5--5------


G---------------|--(7)h9-----7--9--(7)h9-----7--9--|--------------------|-------
D---------------|----------------------------------|--5-----4-----------|--5----
A---7-----7--7--|----------------------------------|-----------5--4-----|-------
E---------------|----------------------------------|-----------------5--|-------


G------------------------|--------------------------|---------------------------
D------4-----------------|--5-----4-----------------|--5-----4--4--6-----5------
A---------5--5-----4-----|-----------5--5-----4-----|---------------------------
E---------------------5--|-----------------------5--|---------------------------


G------|-----------------------|-----------------(7)h9--(7)h9--(7)h9--|---------
D---5--|--7-----7--------7-----|--7-----7--7--7-----------------------|--7------
A------|-----------0--0--------|--------------------------------------|---------
E------|-----------------------|--------------------------------------|---------


G------------------------------|-----------------------------|------------------
D------7--7--7-----------------|-----------------------------|------------------
A---------------7-----7--7--7--|--0-----0--0--0--0--0--0--0--|--0---------------
E------------------------------|-----------------------------|------------------

Organ, Guitar 6:08
G------|-----------------|----------------14-----|--12-------------------|------
D------|-----------------|---------14------------|---------14-----14-----|------
A------|-----------------|--12-------------------|-----------------------|------
E------|-----------------|-----------------------|-----------------------|------


G---14---------------|--14---------------|-------------------|----------------
D---------------------|-----------14------|-------------------|----------------
A------------12------|--------------------|-------------------|----------------
E---------------------|--------------------|--12------x------|-----------0----


G---------|--------------------------------|-----------------(7)h9--(7)h9-------
D---------|--------7--7--7-----------------|--------7--7--7---------------------
A---------|-----------------7-----7--7--7--|------------------------------------
E---3--4--|--5-----------------------------|--5---------------------------------


G---(7)h9--|-----------------(7)h9--(7)h9--(7)h9--|-----------------9--9--------
D----------|--7-----7--7--7-----------------------|--7-----7--7--7--------------
A----------|--------------------------------------|-----------------------------
E----------|--------------------------------------|-----------------------------


G---9--7|--------------------------------|--------------------------------|----
D--------|--------------------------------|--------------------------------|----
A--------|--------------------------------|--4-----4--4--4--5-----5--5--5--|----
E--------|--5-----5--5--5--7-----7--7--7--|--------------------------------|----


G------------------|-----------------|-----------------||-----------------------
D------------------|-----------------|-----------------||-----------------------
A---7--------------|-----------------|-----------------||-----------------------
E------------------|--0--------------|--5--------------||-----------------------


================================================================================
== Created with a demo version of BUCKET O' TAB ==
== tablature creation software for Windows ==
== http://www.his.com/~gse/bucket ==
================================================================================




Ваше мнение



Капча