Starship Trooper
Yes
Transcribed by Justin Benz

0:00
G---|------------------------|------------------------|-------------------------
D---|------------2-----------|------------2-----------|------------2------------
A---|-------2h4-----4--------|-------2h4-----4--------|-------2h4-----4---------
E---|--2/4-------------------|--2/4-------------------|--2/4--------------------


G------|--------------------------|---------------------------------------------
D------|--------------------------|---------------------------------------2-----
A------|--4--4--4--4-----2--2-----|----------------2-----2--2-----2--2h4--------
E------|-----------------------4--|--0-----0--2h4-------------------------------


G------|------------------------|--------------------------|--------------------
D------|------------2-----------|--------------------------|--------------------
A------|-------2h4-----4--------|--4--4--4--4-----2--2-----|--------------------
E------|--2/4-------------------|-----------------------4--|--0-----0--2h4------


G-----------------------------|------------------------|------------------------
D-----------------------2-----|------------2-----------|--4--4--4--4-----2------
A---2-----2-----2--2h4--------|-------2h4-----4--------|------------------------
E-----------------------------|--2/4-------------------|------------------------

0:41
G-----------------|-----------------|----------------------|--------------9-----
D-----------2-----|-----------------|--12--10--9-----------|--------9h11--------
A------2h4--------|--5--------------|-------------10------|--7/11--------------
E-----------------|-----------------|----------------------|--------------------


G-------------|--------------------------|--------------------------------------
D---11--------|--------6-----7--6--7--6--|--------------9--9--9-----------------
A-------------|--9-----------------------|--7-----7-----------------7--7--------
E-------------|--------------------------|--------------------------------------


G---------------------|---------------------------------------------------------
D------9--9--9--9-----|--------------9--9--9-----------------9--9--9--9---------
A---7-----------------|--7-----7-----------------7--7-----7---------------------
E---------------------|---------------------------------------------------------


G---|--------------9------------|-----------------------|-----------------------
D---|--------9h11-----11--------|--(9)h11-----9---------|-----------------9-----
A---|--7/11---------------------|-------------------11--|--7-----7--9h11--------
E---|---------------------------|-----------------------|-----------------------


G------------9-----------9-----|--------------9------------|--------------------
D------9h11--------9h11--------|--------9h11-----11--------|--(9)h11-----9------
A------------------------------|--7/11---------------------|--------------------
E------------------------------|---------------------------|--------------------


G----------|-----------------------------9-----------9-----|--------------9-----
D----------|-----------------9-----9h11--------9h11--------|--------9h11--------
A------11--|--7-----7--9h11--------------------------------|--7/11--------------
E----------|-----------------------------------------------|--------------------


G---11--------|--11-----11-----|--------------|--------------|------------------
D-------------|----------------|--------9-----|--------------|--12--10--9-------
A-------------|----------------|--7--7--------|--5-----------|------------------
E-------------|----------------|--------------|--------------|------------------

1:21
G------------|--------------9------------|--11-----13-----14--13--14--13--|-----
D------------|--------9h11-----11--------|--------------------------------|-----
A---10------|--7/11---------------------|--------------------------------|-----
E------------|---------------------------|--------------------------------|-----


G------------------------------------------|-------------------------|----------
D------------9-----9--------------9-----9--|------------------10-----|--9-------
A---7-----7-----------7--7-----7-----------|--------7-----10---------|-----9----
E------------------------------------------|--8----------------------|----------

Bass Solo
G-----------------------|-----------------------------------|--------------9----
D-----------------------|--------7--9-----7--9--7--9--9--9--|--------9/11-------
A--------------------7--|-----7-----------------------------|--7/11-------------
E---10--7-----10--------|--5--------------------------------|-------------------


G-------9--11--|--14--16-----18--19--19--19--18-----16--|--18--16--14--16-------
D---11---------|----------------------------------------|-----------------------
A--------------|----------------------------------------|-----------------------
E--------------|----------------------------------------|-----------------------


G-------------------------|-----------------------------------|-----------------
D---16--12----------------|-----------------------------------|-----------------
A-----------14-----11--7--|--------7--7-----7-----7-----7--7--|-----------------
E-------------------------|--0-----------0-----0--------------|--0-----0--0-----

1:51
G------------------------------------|--------------------------------|---------
D------------------------------------|--7-----4-----------------------|---------
A------------------------------------|--------------7-----6-----4-----|--3------
E---0-----0--0--0--0-----0--0-----0--|--------------------------------|---------


G------------------14--12-----------------|-------------------------------------
D------7-----5-------------14--12--10-----|--3----------------------------------
A-----------------------------------------|--------0-----5-----3--3--0-----3----
E-----------------------------------------|-------------------------------------


G---|-------------------------------------|-------------------------------------
D---|----------------------------------3--|-------------------------------------
A---|--1-----0-----1-----3-----3--3/5-----|-------------------------------------
E---|-------------------------------------|--4-----3-----3--4-----6-----6h8-----


G------|--------------------------------|--------------------------------|------
D------|--------------------------------|--7-----4-----------------------|------
A---6--|--8-----0-----0--3-----3--0-----|--------------7-----6-----4-----|------
E------|--------------------------------|--------------------------------|------


G---------------------14--12-----------------|----------------------------------
D---------7-----5-------------14--12--10-----|--3-------------------------------
A---3----------------------------------------|--------0-----0--5-----3-----x----
E--------------------------------------------|----------------------------------


G------------|-------------------------------------|----------------------------
D------------|----------------------------------3--|----------------------------
A---0-----3--|--1-----0-----1-----3-----3--3/5-----|----------------------------
E------------|-------------------------------------|--4-----3-----4-----6-------


G--------------|-----------------------------------------|----------------------
D--------------|-----------------------------------------|----------------------
A-----------6--|--8--8-----8--8--8-----8--8--5-----------|-----------------5----
E---6--6h8-----|-----------------------------------8--5--|--3-----5--7--8-------

2:27
G---------|-------------------7-------------|--------------9------------|-------
D---------|---------7--9--10-----10--9------|--------9h11-----11--------|-------
A---7--9--|--10-------------------------10--|--7/11---------------------|--7----
E---------|---------------------------------|---------------------------|-------


G--------------9------------|------------------------|--------------------------
D--------9h11-----11--------|------------2-----------|--------------------------
A---/11---------------------|-------2h4-----4--------|--(2)h4-----2-------------
E---------------------------|--2/4-------------------|------------------4-------


G---|--------------------------------------------|------------------------|-----
D---|---------------------------2----------2-----|------------2-----------|-----
A---|----------------2-----2h4--------2h4--------|-------2h4-----4--------|-----
E---|--0-----x--2h4------------------------------|--2/4-------------------|-----


G-------------------------|--------------------------------------------|--------
D-------------------------|---------------------------2----------2-----|--------
A---(2)h4-----2-----------|----------------2-----2h4--------2h4--------|--7-----
E-------------------4-----|--0-----x--2h4------------------------------|--------


G--------------9--11--------|--11-----11-----|--------------|--------------|----
D--------9h11---------------|----------------|--------9-----|--------------|----
A---/11---------------------|----------------|--7--7--------|--5-----------|----
E---------------------------|----------------|--------------|--------------|----


G-----------------------|--------------9------------|--11-----13-----14--13-----
D---12--10--9-----------|--------9h11-----11--------|---------------------------
A--------------10------|--7/11---------------------|---------------------------
E-----------------------|---------------------------|---------------------------

Guitar & Vocals 4:25
G---14--13--|------------------|--------------------|-----------------|---------
D-----------|--14--------------|--------------------|-----------------|---------
A-----------|------------------|--------------------|-----------------|---------
E-----------|------------------|--------------------|--5--------------|--5------


G---------------|-----------------|-----------------||--------------------------
D---------------|-----------------|-----------------||*--7-----7--4-----4-------
A---------------|-----------------|-----------------||*--------------------7----
E---------------|--1--------------|--1--------------||--------------------------


G------------------------------|--------------------------14--12----------------
D------------------------------|-----------7--7-----5-------------14--12--10----
A------7--6-----6--4-----4--4--|--3--3------------------------------------------
E------------------------------|------------------------------------------------


G------|--------------------------------------------|---------------------------
D------|--3-----3-----------------------------------|---------------------------
A------|-----------0-----0--5-----3-----3--0-----3--|--1-----1--0-----0--1------
E------|--------------------------------------------|---------------------------


G---------------------------||--------------------------------|-----------------
D-----------------------3--*||--7-----4-----------------------|--------7--------
A------1--3-----3--3/5-----*||--------------7-----6-----4-----|--3--------------
E---------------------------||--------------------------------|-----------------


G---------14--12-----------------|-----------------------------------|----------
D---5-------------14--12--10-----|--3--------------------------------|----------
A--------------------------------|--------0-----5-----3--3--0-----3--|--1-------
E--------------------------------|-----------------------------------|----------


G--------------------------------|-------------------------------------|--------
D-----------------------------3--|-------------------------------------|--------
A---0-----1-----3-----3--3/5-----|----------------------------------6--|--8-----
E--------------------------------|--4-----3-----3--4-----6-----6h8-----|--------


G------------------------------|--------------------------------|---------------
D------------------------------|--7-----4-----------------------|--------7------
A------0--0-----0--3-----3--0--|--------------7-----6-----4-----|--3------------
E------------------------------|--------------------------------|---------------


G------------14--12-----------------|-----------------------------------|-------
D------5-------------14--12--10-----|--3--------------------------------|-------
A-----------------------------------|--------0-----5-----3--3--0-----3--|--1----
E-----------------------------------|-----------------------------------|-------


G-----------------------------------|-------------------------------------|-----
D--------------------------------3--|-------------------------------------|-----
A------0-----1-----3-----3--3/5-----|----------------------------------6--|-----
E-----------------------------------|--4-----3-----3--4-----6-----6h8-----|-----


G------------------------------------------|--------------------------|---------
D------------------------------------------|--------------------------|---------
A---8--8-----8--8--8-----8--8--5-----------|-----------------5--7--9--|--10-----
E------------------------------------8--5--|--3-----5--7--8-----------|---------

Guitar
G---------------------9--11--|------------------|-------------------------------
D----------9--10--12---------|--12--------------|-------------------------------
A------12--------------------|------------------|-------------------------------
E----------------------------|------------------|-------------------------------

6:38 (w/ distortion)
G---|------------------|---------------------|--------------------|-------------
D---|------------------|---------------------|--------------------|-------------
A---|------------------|---------------------|--------------------|-------------
E---|--10--------------|--10--------------10|--3--------------10|--3----------


G---------|-------------------------|-------------------------|-----------------
D---------|-------------------------|-------------------------|-----------------
A---------|--------------3--------3/|--10---------------------|-----------------
E---------|--3-----6----------------|---------11-----8--------|--3-----6--------


G-----------------|-----------------------------------------|-------------------
D-----------------|-----------------------10---------10-----|-------------------
A------3--------3/|--10---------------10---------10---------|-------------------
E---6-------------|---------11-----8------------------------|--3--3--3--3--6----


G------------------------------5--|---------------------------------------------
D------------------5--------5-----|--5-----------8-----10-----------------------
A------------3--3-----3--3--------|-----------8---------------10----------------
E---6--6--6-----------------------|--------6----------------------8-----8--8----


G----|-------------------------------------------------------------------|------
D----|-------------------------------------------------------------------|------
A----|-----------------------------3--3--3--3--3--3--3--3--3--3--3--3--3/|------
E---|--3--3--3--3--6--6--6--6--6----------------------------------------|------


G-------------------------------------------------------------------------------
D-------------------------------------------------------------------------------
A---10--10--10--10--10--10--10--10----------------------------------------------
E-----------------------------------11--11--11--11--11--11--11--11--8--8--8-----


G------------------------------------------|------------------------------------
D------------------------------------------|------------------------------------
A------------------------------------------|------------------------------------
E---8--8--8--8--8--8--8--8--8--8--8--8--8--|--3--3--3--3--3--3--3--3--6--6------


G---------------------------------------------------------------------|---------
D---------------------------------------------------------------------|---------
A---------------------3--3--3--3--3--3--3--3--3--3--3--3--3--3--3--3--|--5------
E---6--6--6--6--6--6--------------------------------------------------|---------


G-------------------------------------------------------------------------------
D-------------------------------------------------------------------------------
A------5--5--5-----5/---6-----6--6--6-----6/---10--10--10--10--10-----10--10----
E-------------------------------------------------------------------------------


G----------------------------|--------------------------------------------------
D----------------------------|------------------------------8--8--8--8--8-------
A------10--10-----10-----10--|--10-----10-----10-----10-------------------------
E----------------------------|--------------------------------------------------


G------------------------------------------------------------|------------------
D---8--8-----8h10--10--10--------------------------------10--|--10h12--12-------
A------------------------------------------------------------|------------------
E--------------------------8-----8--8-----8--8-----8---------|------------------


G----------------------------------------12------------12------------12---------
D-------12---------12h13--13------13--------------------------------------------
A-----------------------------------------------10------------10----------------
E---10------10----------------11------------------------------------------------


G----------12------------|------12--12--12------12--12--12------15--15--15------
D------------------------|------------------------------------------------------
A---10------------10-----|--10--------------10--------------13------------------
E------------------------|------------------------------------------------------


G-------15--15--15--------------17-----------------17------17-------------------
D---------------------------17------17---------17------17------17---------------
A---13--------------15--15--------------15--------------------------------------
E-------------------------------------------------------------------------------

8:24 (distortion off)* Repeat & Fade Out
G---||----------------------------------------------------||--------------------
D---||*--5-----------------------------------------------*||--------------------
A---||*--------------6-----------3-----------------------*||--------------------
E---||----------------------------------------------------||--------------------

- On the recording, the part during the guitar solo is played with Taurus Bass
Pedals. If you have a 5-string it sounds better when it's played one octave
lower. What I wrote in is an arrangement for 4-string which sounds one
octave higher.

===============================================================================
== Created with a demo version of BUCKET O' TAB ==
== tablature creation software for Windows ==
== http://www.his.com/~gse/bucket ==
================================================================================




Ваше мнение



Капча