Yes-Owner of a Lonely Heart
tabbed by: Adam
Email: [email protected]
Heres my take on Owner by Yes, a good song indeed (if you ignore the techno stuff).
The fills are my take on whats beneath the synth parts in the first two verses.
Intro
G||--------|--------------------||------------------------|-----------||
D||--------|--------------------||*-----------------------|----------*||
A||--------|--------------------||*---------2--3----5--5--|----------*||
E||--17/---|--------------17/---||---5--------------------|----3--3---||
Fill 1 Verse 1 12x
--------5h-7h-5--------||------------------------|-----------||
--5h-7-----------7h-5--||*-----------------------|----------*||
-----------------------||*---------2--3----5--5--|----------*||
-----------------------||---5--------------------|----3--3---||
-------------------------------------
|*-----------------------|----------*||
|*---------2--3----5--5--|----------*||
|---5--------------------|----3--3---||
Verse 2 Fill 2
---------------------------------- ----------9h-12h-9----------|
*---------------------|----------*|| --10h-12------------12h-10--|
*------2--3----5--5---|----------*|| ----------------------------|
-5--------------------|----3--3---|| ----------------------------|
Fill 3
--------------------------------------------------
*---------------------|----------*||---/17-/17--
*------2--3----5--5---|----------*||--------------
-5--------------------|----3--3---||--------------
Fill 4
---------------------------------- --/14----12~--------------|
*---------------------|----------*||--------------14h-12------|
*------2--3----5--5---|----------*||----------------------15--|
-5--------------------|----3--3---||--------------------------|
------------------------------------- -----------------
|*-----------------------|----------*||---------------7-
|*---------2--3----5--5--|----------*||-----2--3---5----
|---5--------------------|----3--3---||--5--------------
Bridge
|----------9-------------|-------------------------|---------9-------------|
|*--7/-11----11--9----7--|---------7---------------|--7/-11----11--9----7--|
|*-----------------------|--10--7-------10--7--10--|-----------------------|
|------------------------|-------------------------|-----------------------|
3x
-------------------------||
---------7-----------7--*||
--10--7-------10--7-----*|
-------------------------||
Guitar solo: Play verse
Interlude
--12/-19~-(19)~-|--17--(17)/---14----14~-|--14----12------9~---|--7--------5-
----------------|------------------------|-----------------------------------
----------------|------------------------|-----------------------------------
----------------|------------------------|-----------------------------------
Verse 3
Play Bridge

Outro 3x
||------------------------10--|--8------10--8------8---||
||*-----7--10--7--------------|-----10---------10-----*|
||*--8--------------10--------|-----------------------*||
||----------------------------|------------------------||




Ваше мнение



Капча