Mind Drive
Yes
Transcribed by Justin Benz
Guitar, Keyboards 1:03
G---|--------------------|--------------2/|--10--------12-----14--|-------------
D---|--------------------|----------------|-----------------------|--12h14------
A---|--------------------|----------------|-----------------------|-------------
E---|--------------------|----------------|-----------------------|-------------


G-----------------|--10--------12--14/|--21--------17-------------------|-------
D------10---------|-------------------|----------------19-----19h20p19--|-------
A----------12-----|-------------------|---------------------------------|-------
E-----------------|-------------------|---------------------------------|-------


G---------------------15--|--14--------------------------|----------------14----
D---17--------17--19------|------------17--15--14--------|--17--------17--------
A-------------------------|------------------------------|----------------------
E-------------------------|------------------------------|----------------------


G---15/|--18--------19-----21|--10--------------|--5--------------|--10--------
D------|----------------------|--12--------------|--7--------------|--12--------
A------|----------------------|--0---------------|--0--------------|--0---------
E------|----------------------|------------------|-----------------|------------


G------------|--5-----------------|--3-----------------|--5---------------------
D------------|--7-----------------|--5-----------------|--7---------------------
A------------|--0-----------------|--5-----------------|--7---------------------
E------------|--------------------|--3-----------------|--5---------------------


G---|--3-----------------|--6--------7-----9/|--14-----------||---14--14--14----
D---|--5-----------------|--7----------------|---------------||*----------------
A---|--5-----------------|--0----------------|---------------||*----------------
E---|--3-----------------|-------------------|---------------||-----------------

3x 2:10
G------14--14--14-----14--14--14--14------||--||--------------------------------
D----------------------------------------*||--||*-------------------------------
A----------------------------------------*||--||*--0--0--0-----0--0--0-----0----
E-----------------------------------------||--||--------------------------------

21x 7x
G----------------||--||-------------------------------------------||--||--------
D---------------*||--||*-----------------------------------------*||--||*-------
A---0--0--0-----*||--||*--2--2--2-----2--2--2-----2--2--2--2-----*||--||*--0----
E----------------||--||-------------------------------------------||--||--------

6x
G----------------------------------------||-------------------------------------
D---------------------------------------*||-------------------------------------
A---0--0-----0--0--0-----0--0--0--0-----*||--0--0--0-----0--0--0-----0--0--0----
E----------------------------------------||-------------------------------------

2x
G---------||-------------------------------------------||-----------------------
D---------||*-----------------------------------------*||-----------------------
A---2-----||*--2--2--2-----2--2--2-----2--2--2--2-----*||--2--2--2-----2--2-----
E---------||-------------------------------------------||-----------------------


G-----------------------||------------------------------------------|-----------
D-----------------------||*-----------------------------------------|-----------
A---2-----2--2--2--2/---||*--7--7--7-----7--7--7-----7--7--7--7-----|-----------
E-----------------------||------------------------------------------|--0--0-----


G-------------------------------------||----------------------------------------
D------------------------------------*||----------------------------------------
A------------------------------------*||--0--0--0--3--3--3--5--5--5--7--7--7----
E---0-----0--0--0-----0--0--0--0------||----------------------------------------


G------------|-----------------------------------------------12--12--12--||-----
D---5--5--5--|--7--7--7--10--10--10--12--12--12--14--14--14--------------||*----
A------------|-----------------------------------------------------------||*----
E------------|-----------------------------------------------------------||-----

2x
G---14--14--14-----14--14--14-----14--14--14--14------||--14--14--14-----14-----
D----------------------------------------------------*||------------------------
A----------------------------------------------------*||------------------------
E-----------------------------------------------------||------------------------

3:59
G---14--14-----14--12-----------------||----------------------------------------
D----------------------14--12---------||*---------------------------------------
A------------------------------15--12||*--0--0--0-----0--0--0-----0--0--0------
E-------------------------------------||----------------------------------------

6x
G----------||-----------------------------------------||------------------------
D---------*||-----------------------------------------||*-----------------------
A---0-----*||--0--0--0-----0--0--0-----0--0--0--2-----||*--2--2--2-----2--2-----
E----------||-----------------------------------------||------------------------

6x
G-------------------------||-------------------------------------------||-------
D------------------------*||-------------------------------------------||*------
A---2-----2--2--2--2-----*||--2--2--2-----2--2--2/---14--14--14--14---||*------
E-------------------------||-------------------------------------------||-------

7x
G-------------------------------------------||--||------------------------------
D------------------------------------------*||--||*-----------------------------
A---0--0--0-----0--0--0-----0--0--0--0-----*||--||*--7--7--7-----7--7--7--------
E-------------------------------------------||--||------------------------------

3x
G------------------|------------------------------------------||----------------
D------------------|-----------------------------------------*||----------------
A---7--7--7--7-----|-----------------------------------------*||--0--0--0--3----
E------------------|--0--0--0-----0--0--0-----0--0--0--0------||----------------


G------------------------------------|------------------------------------------
D---------------------------5--5--5--|--7--7--7--10--10--10--12--12--12--14-----
A---3--3--5--5--5--7--7--7-----------|------------------------------------------
E------------------------------------|------------------------------------------


G-----------12--12--12--||---14--14--14-----14--14--14-----14--14--14--14-------
D---14--14--------------||*-----------------------------------------------------
A-----------------------||*-----------------------------------------------------
E-----------------------||------------------------------------------------------

2x
G----||--14--14--14-----14--14--14-----14--12------|----------------------------
D---*||----------------------------------------14--|----------------------------
A---*||--------------------------------------------|--0-------------------------
E----||--------------------------------------------|----------------------------

Keyboards, Guitar, Vocals 5:47
G---|-----------------------------|--------------------------|------------------
D---|-----------------------------|--------------------------|------------------
A---|-----------------------------|--------------2--2--2--2--|------------------
E---|-----------------------10---|--1--1--1--1--------------|--2--2--2--2------


G---------------|----------------------------|--6--7--9-----9/14-----|----------
D---------------|-------------------------7--|-----------------------|----------
A---2--2--2--0--|-----------------4/---7-----|-----------------------|----------
E---------------|--3--3--3--3--5-------------|-----------------------|----------


G---------14||---------------------------------|-------------------------------
D------------||*--------------------------------|-------------------------------
A------------||*--5--5-----5--5--5-----5--5-----|--5--5-----5--5--5-----5--5----
E------------||---------------------------------|-------------------------------

2x
G-----------||-----------------------------------|----------------------|-------
D----------*||-----------------------------4-----|----------------------|-------
A---2-----*||--5--5-----5--5--5-----5--5--------|--5--5-----5--5------|-------
E-----------||-----------------------------------|----------------------|--1----


G------------------------|--------------------------|---------------------------
D------------------------|--------------------------|---------------------------
A------------2--2--2--2--|--------------2--2--2--0--|--------------4--4---------
E---1--1--1--------------|--2--2--2--2--------------|--3--3--3--3--------5------


G---------|--------------------------|-----------------------------|------------
D---------|--------------------------|-----------------------------|------------
A---------|--------------2--2--2--2--|--------------2--2--2--2--2--|--3--3------
E---5--0--|--1--1--1--1--------------|--2--2--2--2-----------------|------------

6:40
G---------------------|-----------------|---------7-----7--------|--------------
D---------------------|-----------------|------9-----9-----------|------14------
A---3--3--3--3--2--2--|-----------------|--10--------------------|--15----------
E---------------------|--5--------------|------------------------|--------------


G---12------12--------|------12--16--14--12------|------------------------------
D-------14------------|--14------------------14--|--16--12----------------12----
A---------------------|--------------------------|----------14--------15--------
E---------------------|--------------------------|------------------------------


G---|-----------------14------|---------------------|---------------------|-----
D---|--14--11-------------14--|---------------9-----|---------------------|-----
A---|----------12-------------|--7-----10-----------|----------------9---|-----
E---|-------------------------|---------------------|--7--7--10--10----2--|-----


G---------------------|--------------------|-------------------|----------------
D---------------------|--------------------|-------------------|----------------
A---------------------|--3--3--3--3--3--5--|--7--7-----7--7--7|--2--2--2--2----
E---3-----3--3--3--3--|--------------------|-------------------|----------------


G---------|--------------------|-----------------------|------------------|-----
D---------|--------------2-----|--2--2--2--2--2--2--2--|------------------|-----
A---2--2--|--0--0--4--4-----4--|-----------------------|--(0)h2--2--2--0--|-----
E---------|--------------------|-----------------------|------------------|-----


G---------------------------|--------------------------------|------------------
D---------------------------|--------------------------------|------------------
A---------------2--2--2--2--|--------------2--2--2--0--------|------------------
E---1--1--1--1--------------|--2--2--2--2--------------3--2--|--1--1--1--1------


G---------------|--------------------------------|------------------------------
D---------------|--------------------------------|------------------------------
A---------------|--------------------------------|--------------2--2--2--2------
E---2--2--2--2--|--3--3--3--3--5--5--5--4--3--2--|--1--1--1--1------------------


G---|--------------------------|--------------------------------------|---------
D---|--------------------------|--------------------------------------|---------
A---|--------------2--2--2--0--|--------------4--3--2--1--------------|---------
E---|--2--2--2--2--------------|--3--3--3--3--------------5--4--3--2--|--1------


G------------------------------|--------------------------|---------------------
D------------------------------|--------------------------|---------------------
A------------------------------|--------------2--2--2--2--|--------------2------
E---1--1--1--5-----5--4--3--2--|--1--1--1--1--------------|--2--2--2--2---------


G------------------|--------------------------|-----------------------|---------
D------------------|--------------------------|-----------------------|---------
A---2--2--0--------|--------------------------|-----------------------|---------
E------------3--2--|--1--1--1--1--2--2--2--2--|--3--3--3--3--5--------|---------

7:50
G---------------|--7--------------|---------------------7--|--7--------9/11-----
D---------------|-----------------|----------------7h9-----|--------------------
A---------------|-----------------|--5--------7/9----------|--------------------
E---------------|-----------------|------------------------|--------------------


G---9--7--|--7--------7/9--7----------|-----------------|-----------------|-----
D---------|-------------------97--4--|-----------------|-----------------|-----
A---------|---------------------------|--5-----------0--|--5-----------0--|-----
E---------|---------------------------|-----------------|-----------------|-----


G------------------|-----------------||------------------|-----------------|----
D------------------|-----------------||*-----------------|-----------------|----
A---5--------0--0--|--5--------------||*--5--------0--0--|--5--------0--0--|----
E------------------|-----------------||------------------|-----------------|----


G------------------|-----------------|-----------------|-----------------|------
D------------------|-----------------|-----------------|-----------------|------
A---5--------0--0--|--5--------------|--5--------0--0--|--5--------------|------
E------------------|-----------------|-----------------|-----------------|------

Guitar, Keyboards 8:51
G--------------------|-----------------|--------------------||---5h7------------
D--------------------|-----------------|--------------------||*-------0---------
A---(5)-----------0--|--5--------------|--------------------||*-----------------
E--------------------|-----------------|--------------------||------------------


G--------10--------|------------------5--------|--5h7-------------10------------
D---5/7------------|--5h7----------------------|-------0-----5/7----------------
A------------------|-------0-----5/7-----------|--------------------------------
E------------------|---------------------------|--------------------------------


G---|------------------5--------|--------------------3--------------|-----------
D---|--5h7----------------------|--------------5-----------5--------|-----------
A---|-------0-----5/7-----------|--------5-----------------------5--|-----------
E---|---------------------------|--3--------------------------------|--5--------


G---------------5-----------------|--------------------3-----------------|------
D---------7-----------7-----------|--------------5-----------5-----------|------
A---7-----------------------7-----|--------5-----------------------5-----|------
E---------------------------------|--3-----------------------------------|------


G-------------------6---------||--||---5h7-------------10--------|--------------
D---5h7--------5h7-----------*||--||*-------0-----5/7------------|--5h7---------
A--------0-------------------*||--||*----------------------------|-------0------
E-----------------------------||--||-----------------------------|--------------

3x
G-----------5---------||--------------------3-----------------|-----------------
D--------------------*||--------------5-----------5-----------|-----------------
A------5/7-----------*||--------5-----------------------5-----|--------7--------
E---------------------||--3-----------------------------------|--5--------------


G---------5-----------------|--------------------3-----------------|------------
D---7-----------7-----------|--------------5-----------5-----------|--5h7-------
A---------------------7-----|--------5-----------------------5-----|-------0----
E---------------------------|--3-----------------------------------|------------

10:18
G-----------6-----7-----9--|/14--14--12--12--10--10--9--9--|--------------------
D------5h7-----------------|-------------------------------|--12--12--10--10----
A--------------------------|-------------------------------|--------------------
E--------------------------|-------------------------------|--------------------


G---------------|--------------------------|--------------------------|--5------
D---9--9--7--7--|--7--7--5--5--------------|--------------------------|---------
A---------------|--------------8--8--7--7--|--5--5--3--3--2--2--0--0--|---------
E---------------|--------------------------|--------------------------|---------


G---h7-------------10--------|------------------5--------|----------------------
D-------0-----5/7------------|--5h7----------------------|--------------5-------
A----------------------------|-------0-----5/7-----------|--------5-------------
E----------------------------|---------------------------|--3-------------------


G---3-----------------|--------------------5-----------------||-----------------
D---------5-----------|--------------7-----------7-----------||*----------------
A---------------5-----|--------7-----------------------7-----||*--------5-------
E---------------------|--5-----------------------------------||---3-------------

3x Guitar, Drums
G---------3------------------||--------------|----------------------------------
D---5-----------5-----------*||--------------|----------------------------------
A---------------------5-----*||--------------|----------------------------------
E----------------------------||--3-----------|----------------------------------

11:23 Keyboard Solo
G---||--------------5--------------------|-------------5------------------------
D---||*---------/7--------7--------------|---------/7--------7------------------
A---||*--0--0----------------x--x--x--x--|--0--0----------------x--x--x--x------
E---||-----------------------------------|--------------------------------------

3x
G----||--------------10---------------------|--------------10-------------------
D---*||---------/12---------12--------------|---------/12---------12------------
A---*||--5--5-------------------x--x--x--x--|--5--5-------------------x--x------
E----||-------------------------------------|-----------------------------------


G---------|--------------------------|--------------------------||--------------
D---------|--------------------------|--------------------------||*-------------
A---x--x--|--5--5--5--5--------------|--------------------------||*--0--0-------
E---------|--------------0--0--0--0--|--1--1--1--1--3--3--3--3--||--------------


G-------5--------------------|-------------5---------------------||--5--3-------
D---/7--------7--------------|---------/7--------7--------------*||--------5----
A----------------x--x--x--x--|--0--0----------------x--x--x--x--*||-------------
E----------------------------|-----------------------------------||-------------


G---------------------------|--------2--4-----x--4-----x--4--4------------------
D---------------------------|-----4---------------------------------------------
A---3-----x--3-----x--3--3--|--2------------------------------------------------
E---------------------------|---------------------------------------------------

Guitar Solo
G---||--------------5--------------------|-------------5------------------------
D---||*---------/7--------7--------------|---------/7--------7------------------
A---||*--0--0----------------x--x--x--x--|--0--0----------------x--x--x--x------
E---||-----------------------------------|--------------------------------------

3x
G----||--------------10---------------------|--------------10-------------------
D---*||---------/12---------12--------------|---------/12---------12------------
A---*||--5--5-------------------x--x--x--x--|--5--5-------------------x--x------
E----||-------------------------------------|-----------------------------------


G---------|--------------------------|--------------------------||--------------
D---------|--------------------------|--------------------------||*-------------
A---x--x--|--5--5--5--5--------------|--------------------------||*--0--0-------
E---------|--------------0--0--0--0--|--1--1--1--1--3--3--3--3--||--------------


G-------5--------------------|-------------5---------------------||--5--3-------
D---/7--------7--------------|---------/7--------7--------------*||--------5----
A----------------x--x--x--x--|--0--0----------------x--x--x--x--*||-------------
E----------------------------|-----------------------------------||-------------


G---------------------|--------3--5-----5--5--5--|--4--2------------------------
D---------------------|-----5--------------------|--------4---------------------
A---3-----x--3--3--3--|--3-----------------------|-----------2-----x--2--2------
E---------------------|--------------------------|------------------------------


G------|--------2--4--4--x--x--4/|--14--14--14--12--12--12--|--10--10--10--9----
D------|-----4-------------------|--------------------------|-------------------
A---2--|--2----------------------|--------------------------|-------------------
E------|-------------------------|--------------------------|-------------------

12:24
G---9--9--|--------------------------|-------------------------------|----------
D---------|--12--12--12--10--10--10--|--9--9--9--7--7--7-------------|----------
A---------|--------------------------|--------------------10--10--10|----------
E---------|--------------------------|-------------------------------|--1--1----


G---------------------|--------------------------|------------------------------
D---------------------|--------------------------|------------------------------
A---------2--2--2--2--|--------------2--2--2--2--|------------------------------
E---1--1--------------|--2--2--2--2--------------|--1--1--1--1--1--2--2--2------


G---------|--------------------------------|--------------------------|---------
D---------|--------------------------------|--------------------------|---------
A---------|--------------------------------|--------------2--2--2--2--|---------
E---2--2--|--3--3--3--3--5-----5--4--3--2--|--1--1--1--1--------------|--2------


G------------------------------|--------------------------|---------------------
D------------------------------|--------------------------|---------------------
A------------2-----2--0--------|--------------------------|--------------4------
E---2--2--2--------------3--2--|--1--1--1--1--2--2--2--2--|--3--3--3--3---------


G------------------------|--------------------------|---------------------------
D------------------------|--------------------------|---------------------------
A---3--2--1--------------|--------------2--2--2--2--|--------------2--2--2------
E------------5--4--3--2--|--1--1--1--1--------------|--2--2--2--2---------------

Guitar, Vocals, Piano
G------|--------------------------|-----------------|---------------------------
D------|--------------------------|-----------------|---------------------------
A---2--|--3--3--3--3--3--3--3--3--|-----------------|---------------------------
E------|--------------------------|--5--------------|---------------------------

13:46 13x
G---||-------------------------------------------||--||-------------------------
D---||*-----------------------------------------*||--||*------------------------
A---||*--0--0--0-----0--0--0-----0--0--0--0-----*||--||*--2--2--2-----2--2------
E---||-------------------------------------------||--||-------------------------

6x
G-------------------------||--------------------------16h17p16h17p16------------
D------------------------*||------------------------------------------17--------
A---2-----2--2--2--2-----*||--2--2--2-----2--2--2-------------------------------
E-------------------------||----------------------------------------------------

14:33 7x
G---||-------------------------------------------||--||-------------------------
D---||*-----------------------------------------*||--||*------------------------
A---||*--0--0--0-----0--0--0-----0--0--0--0-----*||--||*--2--2--2-----2--2------
E---||-------------------------------------------||--||-------------------------

2x
G-------------------------||----------------------------------------||----------
D------------------------*||----------------------------------------||*---------
A---2-----2--2--2--2-----*||--2--2--2-----2--2--2-----2--2--2--2/---||*--7------
E-------------------------||----------------------------------------||----------


G---------------------------------------|---------------------------------------
D---------------------------------------|---------------------------------------
A---7--7-----7--7--7-----7--7--7--7-----|---------------------------------------
E---------------------------------------|--0--0--0-----0--0--0-----0--0--0------


G----------||-----------------------------------------------|-------------------
D---------*||--------------------------------------5--5--5--|--7--7--7--10------
A---------*||--0--0--0--3--3--3--5--5--5--7--7--7-----------|-------------------
E---0------||-----------------------------------------------|-------------------


G-----------------------------------12--12--12--||---14--14--14-----14--14------
D---10--10--12--12--12--14--14--14--------------||*-----------------------------
A-----------------------------------------------||*-----------------------------
E-----------------------------------------------||------------------------------

2x
G---14-----14--14--14--14------||--14--14--14-----14--14--14-----14--12---------
D-----------------------------*||----------------------------------------14-----
A-----------------------------*||-----------------------------------------------
E------------------------------||-----------------------------------------------

6x
G--------------||-------------------------------------------||------------------
D---12---------||*-----------------------------------------*||------------------
A-------15--12||*--0--0--0-----0--0--0-----0--0--0--0-----*||--0--0--0---------
E--------------||-------------------------------------------||------------------


G------------------------------||-----------------------------------------------
D------------------------------||*----------------------------------------------
A---0--0--0-----0--0--0--2-----||*--2--2--2-----2--2--2-----2--2--2--2----------
E------------------------------||-----------------------------------------------

6x
G----||----------------------------------------||-------------------------------
D---*||----------------------------------------||*------------------------------
A---*||--2--2--2--2--2--2--2/14--14--14--14---||*--0--0--0-----0--0--0---------
E----||----------------------------------------||-------------------------------

7x
G-------------------||--||------------------------------------------|-----------
D------------------*||--||*-----------------------------------------|-----------
A---0--0--0--0-----*||--||*--7--7--7-----7--7--7-----7--7--7--7-----|-----------
E-------------------||--||------------------------------------------|--0--0-----

3x
G-------------------------------------||----------------------------------------
D------------------------------------*||----------------------------------------
A------------------------------------*||--0--0--0--3--3--3--5--5--5--7--7--7----
E---0-----0--0--0-----0--0--0--0------||----------------------------------------


G------------|-----------------------------------------------12--12--12--||-----
D---5--5--5--|--7--7--7--10--10--10--12--12--12--14--14--14--------------||*----
A------------|-----------------------------------------------------------||*----
E------------|-----------------------------------------------------------||-----

2x
G---14--14--14-----14--14--14-----14--14--14--14------||--14--14--14-----14-----
D----------------------------------------------------*||------------------------
A----------------------------------------------------*||------------------------
E-----------------------------------------------------||------------------------

16:35
G---14--14-----14--12---------||------------------------------------------------
D----------------------14--12||*--7-----------7-----------7--7-----7-----------
A-----------------------------||*--------0--0--------0--0--------0--------------
E-----------------------------||------------------------------------------------

6x
G----||--------------------------------------|-------------------|--------------
D---*||--7-----------7-----------7--7--7/12--|--10---------------|--------------
A---*||--------0--0--------0--0--------------|---------------10--|--12----------
E----||--------------------------------------|-------------------|--------------


G----------|-------------------|-------------/12--|--10---------/12--|--10------
D------12--|--10---------------|------------------|------------------|----------
A----------|---------------10--|--12--------------|------------------|----------
E----------|-------------------|------------------|------------------|----------


G---------------|-------------------|-------------/12--|--10---------/12--|-----
D----------/12--|--10---------------|------------------|------------------|-----
A---------------|---------------10--|--12--------------|------------------|-----
E---------------|-------------------|------------------|------------------|-----

17:19
G---10---------/12--|--10-----------|--------------------------||---------------
D-------------------|---------------|--------------------2--4--||*--------------
A-------------------|---------------|-----------2--2--5--------||*--0--0--------
E-------------------|---------------|--------------------------||---------------

5x
G-------5--------------------|-------------5---------------------||-------------
D---/7--------7--------------|---------/7--------7--------------*||-------------
A----------------x--x--x--x--|--0--0----------------x--x--x--x--*||--5--5-------
E----------------------------|-----------------------------------||-------------


G--------10---------------------|--------------10---------------------|---------
D---/12---------12--------------|---------/12---------12--------------|---------
A-------------------x--x--x--x--|--5--5-------------------x--x--x--x--|--5------
E-------------------------------|-------------------------------------|---------


G------------------------|--------------------------||--------------5-----------
D------------------------|--------------------------||*---------/7--------7-----
A---5--5--5--------------|--------------------------||*--0--0-------------------
E------------0--0--0--0--|--1--1--1--1--3--3--3--3--||--------------------------

2x
G---------------|-------------5---------------------||--------------------5-----
D---------------|---------/7--------7--------------*||--------------5--7--------
A---x--x--x--x--|--0--0----------------x--x--x--x--*||--0--3--5--7--------------
E---------------|-----------------------------------||--------------------------


G--------------|--------3--5-----5--5--5--|--5--3--------------------|----------
D---7--5-------|-----5--------------------|--------5-----------------|-----4----
A---------7---|--3-----------------------|-----------3-----3--3--3--|--2-------
E--------------|--------------------------|--------------------------|----------


G---2--4-----4-----x--x--2--|-----------2--4--4--4/---|--14--14--14--12--12-----
D---------------------------|--4----------------------|-------------------------
A---------------------------|-----2--2----------------|-------------------------
E---------------------------|-------------------------|-------------------------

Keyboards 18:09
G---12--|--10--10--10--9--9--9--|--------------------|-----------------|--------
D-------|-----------------------|--------------------|-----------------|--------
A-------|-----------------------|--------------------|-----------------|--------
E-------|-----------------------|--------------------|--0--------------|--------


G--------------------||---------------------------------------------------------
D--------------------||---------------------------------------------------------
A--------------------||---------------------------------------------------------
E---(0)--------------||---------------------------------------------------------


================================================================================
== Created with a demo version of BUCKET O' TAB ==
== tablature creation software for Windows ==
== http://www.his.com/~gse/bucket ==
================================================================================




Ваше мнение



Капча