From uunet!munnari.oz.au!mtiame!iconix!ajm Wed Aug 26 16:49:01 PDT 1992
Article: 1842 of alt.guitar.tab
Newsgroups: alt.guitar.tab
Path: nevada.edu!uunet!munnari.oz.au!mtiame!iconix!ajm
From: [email protected] (Andrew Mack)
Subject: Love Will Find A Way -- Guitar Intro
Message-ID:
Sender: [email protected] (USENET)
Nntp-Posting-Host: titanic
Organization: ICONIX Corporation World Headquarters
Date: Wed, 26 Aug 1992 00:49:15 GMT
Lines: 20

Love Will Find A Way -- Yes (Trevor Rabin)

Main riff:
----------------------------------------------------
---------------------------------------------2------
--------------0--------------------4-------4-2------
------0-----0---0------------2---4-------4---2------
--0-4-----4-------4-0--0-0-4---2-----0-------0------
--------3------------------------------3------------

Little fill played once during the intro (in-between riffs):
---------------------
--2-3-2--------------
--------4-2----------
------------4-2------
----------------0----




Ваше мнение



Капча