Foot Prints
Yes
Transcribed by Justin Benz
Vocals 0:18 5x 0:45
G---|-----------------||---------------------|------------------||--||----------
D---|-----------------||---------------------|------------------||--||----------
A---|-----------------||*--2--------3--------|--5--------------*||--||*--5------
E---|-----------------||*--------------------|-----------------*||--||*---------
B---|-----------------||---------------------|------------------||--||----------

3x
G---------------------------------|---------------------------------||----------
D---------------------------------|---------------------------------||----------
A---------5-----------------5-----|-----------5--------------3-----*||--5-------
E---------------------------------|--------------------5-----------*||----------
B------3-----3-----3-----3--------|--3-----3-----3------------------||----------


G------------------------------|--------------------------------|---------------
D------------------------------|--------------------------------|---------------
A------5-----------------5-----|--------------5-----------3-----|--5------------
E------------------------------|--------------------5-----------|---------------
B---3-----3-----3-----3--------|--3-----3--3--------------------|--------3------


G---------------------------|--------------------------------|------------------
D---------------------------|--------------------------------|------------------
A---5-----------------5-----|-----------5--------------3-----|------------------
E---------------------------|--------------------5-----------|--3--------3------
B------3-----3-----3--------|--3-----3-----3-----------------|------------------


G---------------|--------------------------|--------------------------|---------
D---------------|--------------------------|--------------------------|---------
A------------3--|--5--------5--5--5--3-----|-----------------------3--|---------
E---3--3--6-----|-----------------------6--|--3--------3--3--3--6-----|---------
B---------------|--------------------------|--------------------------|---------


G--------------------------|--------------------------|-----------------|-------
D--------------------------|--------------------------|-----------------|-------
A---3h5--------------------|-----------------------3--|--5--------------|--5----
E--------------------------|--3--------3--3--3--6-----|-----------------|-------
B-----------3-----3--------|--------------------------|-----------------|-------

1:31
G---------------------------------|--------------------------------||-----------
D---------------------------------|--------------------------------||-----------
A---------5-----------------5-----|-----------5--------------3-----||*----------
E---------------------------------|--------------------5-----------||*----------
B------3-----3-----3-----3--------|--3-----3-----3-----------------||------3----

2x
G---------------------------|---------------------------------||----------------
D---------------------------|---------------------------------||----------------
A---5-----------------5-----|-----------5--------------3-----*||--------5-------
E---------------------------|--------------------5-----------*||----------------
B------3-----3-----3--------|--3-----3-----3------------------||-----3-----3----


G---------------------|--------------------------------|------------------------
D---------------------|--------------------------------|------------------------
A---------------5-----|-----------5--------4-----3-----|--2--------2--2--2------
E---------------------|--------------------------------|------------------------
B------3-----3--------|--3-----3-----------------------|------------------------


G---------|--------------------------|-----------------------------|------------
D---------|--------------------------|-----------------------------|------------
A---------|-----------------------2--|--3-----------3--------------|------------
E---0--2--|--3--------3--3--3--5-----|--------------------0--1--2--|--3---------
B---------|--------------------------|-----------1-----1-----------|------------


G---------------------|--------------------------------|------------------------
D---------------------|--------------------------------|------------------------
A------------2--3--4--|--5--------------5--------------|------------------------
E------3--3-----------|-----------------------------2--|--3--------3--3--2------
B---------------------|--------3--3--------3--5--5-----|------------------------

2:08
G------|--------------------------|-----------------|-----7--7p5-----5----------
D------|--------------------------|-----------------|--0----------7-----0--0----
A------|--------------------------|-----------------|---------------------------
E---1--|--0-----0-----0--0--0--0--|--5--------------|---------------------------
B------|--------------------------|-----------------|---------------------------


G-------------------|-----7--7p5-----5-------------------------|-----7--7p5-----
D---0--3-----5^-----|--0----------7-----7p5p0--3--3--5^-----3--|--0-------------
A-------------------|------------------------------------------|----------------
E-------------------|------------------------------------------|----------------
B-------------------|------------------------------------------|----------------


G------5------------2----4--|-----7--7p5-----5-------------------------||-------
D---7-----7p5p0--3---/5-----|--0----------7-----7p5p0--3--3--5^-----3--||-------
A---------------------------|------------------------------------------||*------
E---------------------------|------------------------------------------||*------
B---------------------------|------------------------------------------||-------

6x
G------7--7p5-----5--------------------------||-----7--7p5-----5----------------
D---0----------7-----7p5p0--3--3--5^-----3---||--0----------7-----7p5p0--3------
A-------------------------------------------*||---------------------------------
E-------------------------------------------*||---------------------------------
B--------------------------------------------||---------------------------------

7x
G---2----4--||------7--7p5-----5--------------------------||--------------------
D----/5-----||---0----------7-----7p5p0--3--3--5^-----3---||-----7--7p5---------
A-----------||*------------------------------------------*||--0----------7------
E-----------||*------------------------------------------*||--------------------
B-----------||--------------------------------------------||--------------------


G-----------------------------|-------------------------------------------------
D---5-------------------------|-----7--7p5-----5--------------------------------
A------7p5p0--3--3-----5^-----|--0----------7-----7p5p0--3--3-----5^-----3------
E-----------------------------|-------------------------------------------------
B-----------------------------|-------------------------------------------------


G---|-------------------------------------|-------------------------------------
D---|-----7--7p5-----5------------2----4--|-----7--7p5-----5--------------------
A---|--0----------7-----7p5p0--3---/5-----|--0----------7-----7--7-----3--3-----
E---|-------------------------------------|-------------------------------------
B---|-------------------------------------|-------------------------------------


G------------||-------------------------------------------|---------------------
D------------||------7--7p5-----5-------------------------|-----7--7p5-----5----
A---5-----3--||*--0----------7-----7p5p0--3--3-----5^-----|--0----------7-------
E------------||*------------------------------------------|---------------------
B------------||-------------------------------------------|---------------------

3:28
G------------------------------||-----------------|-----------------------------
D------------------------------||-----------------|-----------------------------
A---7p5p0--3--3-----5^-----3--*||--5--------3-----|-----------------------------
E-----------------------------*||-----------------|--5--------3-----3-----5-----
B------------------------------||-----------------|-----------------------------


G------|-----------------|-----------------------|-----------------|------------
D------|-----------------|-----------------------|-----------------|------------
A------|--5--------3-----|-----------------------|--5--------3-----|------------
E------|-----------------|--5--------3-----3-----|-----------------|--5---------
B------|-----------------|-----------------------|-----------------|------------


G------------------------|-----------------|--------------------------||--------
D------------------------|-----------------|--------------------------||--------
A---------------------3--|--5--------3-----|--------------------------||*-------
E------3-----3-----5-----|-----------------|--5--------3--------------||*-------
B------------------------|-----------------|-----------------0--1--2--||---3----

3x
G------------------|---------------------------------||--------------------|----
D------------------|---------------------------------||--------------------|----
A------------------|--------------------------------*||--------------------|----
E------------------|--------------------------------*||--------------------|----
B---3--3--3--3--3--|--3--3--3--3--3--3--3--3--3--3---||--3--3--3--3--3--3--|----


G---------------------------------||------7--7p5-----5--------------------------
D---------------------------------||---0----------7-----0--0--0--3-----5^-------
A------------------------------3--||*-------------------------------------------
E---------------------------5-----||*-------------------------------------------
B---3--3--3--3--3--3--3--3--------||--------------------------------------------

3x 4:32
G---|-----7--7p5-----5--------------------------||-----------------|------------
D---|--0----------7-----7p5p0--3--3--5^-----3---||-----------------|------------
A---|------------------------------------------*||--5--------3-----|------------
E---|------------------------------------------*||-----------------|--5---------
B---|-------------------------------------------||-----------------|------------


G------------------------|-----------------|--------------------------|---------
D------------------------|-----------------|--------------------------|---------
A------------------------|--5--------3-----|-----------------------3--|--5------
E------3-----3-----5-----|-----------------|--5--------3-----3--5-----|---------
B------------------------|-----------------|--------------------------|---------


G---------------|--------------------------|-----------------|------------------
D---------------|--------------------------|-----------------|------------------
A---------3-----|--------------------3--5--|--5--------3-----|------------------
E---------------|--5--------3-----5--------|-----------------|--5--------3------
B---------------|--------------------------|-----------------|------------------


G--------------------|--------------------------|-------------------------------
D------------------5/|--12--12--12--10--10--10--|-------------------------------
A---------------3----|--------------------------|--12--12--12--10--10--10-------
E---3--3--3--5-------|--------------------------|-------------------------------
B--------------------|--------------------------|-------------------------------


G-------------------|--------------------------|--------------------------------
D-----------10--12--|--12--12--12--10--10--10--|--------------------------------
A---10--12----------|--------------------------|--12--12--12--10--10--10--10----
E-------------------|--------------------------|--------------------------------
B-------------------|--------------------------|--------------------------------


G---------------|--------------------------|------------------------------------
D---------------|--12--12--12--10--10--10--|------------------------------------
A---10--10--10--|--------------------------|--12--12--12--10--10--10--10--10----
E---------------|--------------------------|------------------------------------
B---------------|--------------------------|------------------------------------


G-----------|-------------------------|-----------------------------------------
D-------10--|--12--12--12--10--10-----|--7--------------------------------------
A---12------|----------------------0--|-----------------3-----------------------
E-----------|-------------------------|-----------5-----------------------------
B-----------|-------------------------|-----------------------------------------

5:09 Harmonics in parenthesis
G---||------------(5)-----|--------------------|-----------(4)-----|------------
D---||--------------------|--------------------|-------------------|------------
A---||*--5----------------|--------------3-----|--5----------------|------------
E---||*-------------------|--------5-----------|-------------------|------------
B---||--------------------|--------------------|-------------------|------------

3x
G----------------||-----------(5)-----|--------------------|-----------(4)------
D----------------||-------------------|--------------------|--------------------
A---------3-----*||--5----------------|--------------3-----|--5-----------------
E---5-----------*||-------------------|--------5-----------|--------------------
B----------------||-------------------|--------------------|--------------------

5:55
G------|--------------------|-----7--7p5-----5-------------------------|--------
D------|--------------------|--0----------7-----7p5p0--3--3-----5^-----|--0-----
A------|--------------3-----|------------------------------------------|--------
E------|--------5-----------|------------------------------------------|--------
B------|--------------------|------------------------------------------|--------


G---7--7p5-----5-------------------------|-----7--7p5-----5------------2--------
D-----------7-----7p5p0--3--3--5^-----3--|--0----------7-----7p5p0--3---/5------
A----------------------------------------|--------------------------------------
E----------------------------------------|--------------------------------------
B----------------------------------------|--------------------------------------


G---4--|-----7--7p5-----5-------------------------||------7--7p5-----5----------
D------|--0----------7-----7p5p0--3--3--5^-----3--||---0----------7-----7p5-----
A------|------------------------------------------||*---------------------------
E------|------------------------------------------||*---------------------------
B------|------------------------------------------||----------------------------


G--------------------|-----7--7p5-----5-------------------------||-----7--7-----
D---p0--3--3-----5^--|--0----------7-----7-----3--3--5^-----3---||--0-----------
A--------------------|-----------------------------------------*||--------------
E--------------------|-----------------------------------------*||--------------
B--------------------|------------------------------------------||--------------


G---p5-----5----------------------------------|-----7--7p5-----5----------------
D-------7-----7p5p0--3-----3--3--3-----5^-----|--0----------7-----7-----3--3----
A---------------------------------------------|---------------------------------
E---------------------------------------------|---------------------------------
B---------------------------------------------|---------------------------------


G-------------|-----7--7p5--------5--------2----4--|-----7--7p5-----5-----------
D---5^-----3--|--0----------7--7--------3---/5-----|--0----------7-----7p5------
A-------------|------------------------------------|----------------------------
E-------------|------------------------------------|----------------------------
B-------------|------------------------------------|----------------------------


G-----------------------|-----7--7p5-----5---------------------------|-----7----
D---p0--3--3--5^-----3--|--0----------7-----0--0--0--3--3--5^-----3--|--0-------
A-----------------------|--------------------------------------------|----------
E-----------------------|--------------------------------------------|----------
B-----------------------|--------------------------------------------|----------


G---7p5-----5------------2----4--|-----7--7p5-----5----------------------|------
D--------7-----7p5p0--3---/5-----|--0----------7-----7p5p0--3--3--5^-----|------
A--------------------------------|---------------------------------------|------
E--------------------------------|---------------------------------------|------
B--------------------------------|---------------------------------------|------

6:40
G------7--7p5-----5--------------------||---------------------|-----------------
D---0----------7-----7-----3--3--5--5--||---5--------5--------|--5--------------
A--------------------------------------||*-----2--------3-----|-----5-----------
E--------------------------------------||*--------------------|-----------------
B--------------------------------------||---------------------|-----------------


G-------||--------------------|--------------------------------|----------------
D-------||--5--------5--------|--5--------5--4-----5--4--------|--5--------5----
A------*||-----2--------3-----|-----5-----------5--------5-----|-----2----------
E------*||--------------------|--------------------------------|----------------
B-------||--------------------|--------------------------------|----------------


G---------|-----------------|--------------------|-----------------------|------
D---------|--5--------------|--5--------5--------|--5--------------------|------
A---3-----|-----5-----------|-----2--------3-----|-----5--------5--5-----|------
E---------|-----------------|--------------------|-----------------------|------
B---------|-----------------|--------------------|-----------------------|------


G---------------------|--------------12--11------12-----||----------------------
D---5--------5--------|--5-------------------12---------||----------------------
A------2--------3-----|-----5---------------------------||*---------------------
E---------------------|---------------------------------||*---------------------
B---------------------|---------------------------------||---0--0--0--0--1------

3x 7:28
G------------|---------------------------||-----------------|--------10---------
D------------|---------------------------||-----------------|-------------------
A------------|--------------------------*||--5--------------|-------------------
E------------|--------------------------*||-----------------|-------------------
B---1--1--1--|--3--3--3--3--3--3--3--3---||-----------------|-------------------


G---12--10-----9---------|-----------------|------------------------------------
D-----------------12--10|-----------------|------------------------------------
A------------------------|--5--------3-----|------------------------------------
E------------------------|-----------------|--5--------3-----3--1-----0---------
B------------------------|-----------------|------------------------------------


G---|-----------------------|-----------------------------|---------------------
D---|-----------------------|-----------------------------|---------------------
A---|-----------------------|-----------------------------|---------------------
E---|-----------------------|--5--------3-----3--1--0-----|---------------------
B---|--3--3--3--1--1--1-----|--------------------------1--|--3--3--3--1--1------

7:45
G------|-----------------------------|--------------------|---------------------
D------|-----------------------------|--------------------|---------------------
A------|-----------------------------|--------------------|---------------------
E------|--5--------3-----3--1--0-----|--------------------|--5--------3---------
B---1--|--------------------------1--|--3--3--3--1--1--1--|---------------------

2x
G------------|--------------------------|---------------------------||----------
D------------|--------------------------|---------------------------||----------
A------------|--------------------------|--------------------------*||----------
E---1-----0--|--------------------------|--------------------------*||----------
B------------|--3--3--3--3--3--3--3--3--|--3--3--3--3--3--3--3--3---||--3--3----


G---------------------|-----------------5/14-----|------------------------------
D---------------------|--------------------------|--14--------------------------
A---------------------|--------------------------|------------------------------
E---------------------|--------------------------|------------------------------
B---3--3--3--3--3--3--|--3--3--3--3--3-----------|------------------------------

Guitar, Keyboards, Drums
G---|--------------------|-----------------||-----------------------------------
D---|--------------------|-----------------||-----------------------------------
A---|--------------------|-----------------||-----------------------------------
E---|--------------------|-----------------||-----------------------------------
B---|--------------------|-----------------||-----------------------------------


================================================================================
== Created with a demo version of BUCKET O' TAB ==
== tablature creation software for Windows ==
== http://www.his.com/~gse/bucket ==
================================================================================




Ваше мнение



Капча