Five Per Cent for Nothing
Yes
Transcribed by Justin Benz
0:00
-|--------------9--9--------|-----------------------8-----|---------------------
-|--------9--------------9--|-----------9--8--------------|-----------7---------
-|--7-----------------------|--7--7--------------6-----6--|--5--5---------------
-|--------------------------|-----------------------------|---------------------


7--7--------|-----------------7--7-----------|-----------------------------8----
---------7--|-----------7--------------7-----|-----------8--------------8-------
------------|--5--5-----------------------5--|-----4--6-----8--6--8-------------
------------|--------------------------------|----------------------------------


---|---------------10--10------------|--------------------------|---------------
8--|--------10----------------10-----|--------------9--9--------|---------------
---|--8---------------------------8--|--------9--------------9--|---------------
---|---------------------------------|--7-----------------------|--7--7---------


---------------------|--------------9--9--------|--------------------------|----
------9--9-----------|--------9--------------9--|-----------9--8-----------|----
9--------------9-----|--7-----------------------|--7--7--------------6-----|----
------------------7--|--------------------------|-----------------------6--|----


---------------7--7--------|-----------------7-----7--------|-------------------
---------7--------------7--|-----------7--------------7-----|-----------8-------
5--5-----------------------|--5--5-----------------------5--|-----4--6-----8----
---------------------------|--------------------------------|-------------------


------------8-----|---------------10--10------------|---------------------------
---------8-----8--|--------10----------------10-----|--------------9--9---------
6--8--------------|--8---------------------------8--|--------9------------------
------------------|---------------------------------|--7------------------------


---|-----------------------------------||---------------------------------------
---|-----------------9--9--------------||---------------------------------------
9--|-----------9--------------9--------||---------------------------------------
---|--7--7--------------------------7--||---------------------------------------


================================================================================
== Created with a shareware version of the BUCKET 'O TAB ==
== tablature creation software for Windows ==
== For more information: ==
== email: [email protected] ==
== US Mail: The Bucket, 3176-B5 Summit Square Dr., Oakton, VA 22124 ==
================================================================================




Ваше мнение



Капча