Astral Traveller
Yes
Transcribed by Justin Benz
Guitar 0:22 6x
G---|-----------------||----------------------------------------------||--------
D---|-----------------||*--------------------------------------3--5--*||--------
A---|-----------------||*--------------------3-----3--5-----5--------*||--------
E---|-----------------||---3-----3--6-----6---------------------------||--3-----

0:43
G------------------||------------------------------------|----------------------
D------------------||*--------------------------3-----5--|----------------------
A------------------||*--------------3-----5--------------|--------------3-------
E---------------1--||---3-----6--------------------------|--3-----6-------------


G------------------|---------------------------------------|--------------------
D---------3-----5--|--------------------------5-----7------|--------------------
A---5--------------|--------------5-----7------------------|--------------5-----
E------------------|--5-----8--------------------------(3)/|--5-----8-----------


G--------------------------||-----------------------|---------------------------
D------------5-----7------*||-----------------------|---------------------------
A------7------------------*||-----------------------|---------------------------
E---------------------(1)/-||--0-----0-----0--------|--2-----2-----2------------


G---|-----------------------|-----------------------|---------------------------
D---|-----------------------|-----------------------|---------------------------
A---|-----------------------|-----------------------|---------------------------
E---|--3-----3-----3--------|--2-----2-----2--------|--0-----0-----0------------

1:26
G---|-----------------------|-----------------------|-------------|-------------
D---|-----------------------|-----------------------|-------------|-------------
A---|-----------------------|-----------------------|-------------|-------------
E---|--2-----2-----2--------|--3-----3-----3--------|--8---------|--5-----5----


G------------------------------------|------------------------------------------
D------------------------------5--7--|-----------------------------------5------
A------------5-----5--7-----7--------|--------------------5-----7--7--7---------
E---8-----8--------------------------|--5-----5--8-----8------------------------


G------------|-----------------------------------------------------|------------
D------7--7--|-----------------------------------------7--7--9--9--|--9--7------
A------------|-----------------------7--7--7--9--9--9--------------|------------
E------------|--7--7--7--10--10--10--------------------------------|------------


G---------------------------------------------|---------------------------------
D---8--9--9--7--8--9--9--7--8--9--9--9--7-----|---------------------------------
A------------------------------------------9--|--------------------5-----5------
E---------------------------------------------|--5-----5--8-----8---------------


G------------------|-----------------------------------------|------------------
D------------5--7--|-----------------------------------5--7--|------------------
A---7-----7--------|--------------------5-----5--7--7--------|------------------
E------------------|--5-----5--8-----8-----------------------|--7-----7--10-----


G-------------------------------------|-----------------------------------------
D-------------------------7--7--9--9--|-----------------------------------------
A----------7-----9--9--9--------------|----------------------7-----9--9--9------
E------10-----------------------------|--7-----7--10-----10---------------------


G------------|-----------------------|-----------------------|------------------
D---7-----9--|-----------------------|-----------------------|------------------
A------------|-----------------------|-----------------------|------------------
E------------|--0-----0-----0--------|--2-----2-----2--------|--3-----3---------


G------------|-----------------------|-----------------------|------------------
D------------|-----------------------|-----------------------|------------------
A------------|-----------------------|-----------------------|------------------
E---3--------|--2-----2-----2--------|--0-----0-----0--------|--2-----2---------


G--------------------------|-----------------------|-------------|-----7--------
D--------------------------|-----------------------|-------------|--------------
A-------/9--9--9--9--9-----|-----------------------|-------------|--5-----5-----
E---2----------------------|--3-----3-----3--------|--8---------|--------------

Organ 2:15
G------6--------5-----------|--------------------|------------------------------
D---------------------------|--------------------|------------------------------
A---4-----4--3-----2--------|--------------------|--0-----0-----0-----0---------
E---------------------------|--------------------|------------------------------

Bass Solo
G---|-----------------------|--19--18--19--18--19-----19--18--19--18--19--|-----
D---|-----------------------|---------------------------------------------|-----
A---|--0--------0-----------|---------------------------------------------|-----
E---|-----------------------|---------------------------------------------|-----


G---19--18--19--18--19-----18--19-----18--19--|-----18--19-----18--19-----18----
D---------------------------------------------|---------------------------------
A---------------------------------------------|---------------------------------
E---------------------------------------------|---------------------------------


G---19-----18--19--|-----18--19-----18--19--18--19-----18--19-----|--18---------
D------------------|----------------------------------------------|-------------
A------------------|----------------------------------------------|-------------
E------------------|----------------------------------------------|-------------


G---19-----18--19-----18--19-----18--19--19-----||------------------------------
D-----------------------------------------------||*------16--14-----------------
A-----------------------------------------------||*--17----------15-----17------
E-----------------------------------------------||------------------------------


G------------------|---------------------18------19---||--||---19--19--19-------
D------------------|--15--17--19--17---------19------*||--||*-------------------
A-----------17-----|---------------------------------*||--||*-------------------
E---15--17---------|----------------------------------||--||--------------------


G---19--19-----19--19--19--19--19--|--19--19--19--19--19--19--19--19--19--------
D----------------------------------|--------------------------------------------
A----------------------------------|--------------------------------------------
E----------------------------------|--------------------------------------------


G---19--19--19--19--19--19--19--|--19--19-----19--19-----19--19-----19--19------
D-------------------------------|-----------------------------------------------
A-------------------------------|-----------------------------------------------
E-------------------------------|-----------------------------------------------

2:54 Guitar Solo 6x
G---------------------------||--||----------------------------------------||----
D------12--12-----0--0-----*||--||*--------------------------------------*||----
A--------------------------*||--||*--------------------------------------*||----
E---------------------------||--||---3-----3--3-----3--3-----3--3--3------||----

3:17
G------------------------------------|------------------------------------------
D------------------------------------|-----------------------------5--3---------
A------------------------------------|-----------------------------------5------
E---3-----3--3-----3--3-----3--3--1--|--3-----3--3-----3--3-----3---------------


G---|--------------------------------------|------------------------------------
D---|--------------------------------3--5--|-----------5-----5--5-----5--5------
A---|-----------------------------5--------|------------------------------------
E---|--3-----3--3-----3--3-----3-----------|--3-----3---------------------------


G---------|-------------------------------------|-------------------------------
D---3-----|-----------5-----5--5-----5---/7--7--|--8--------8--------8----------
A------5--|-------------------------------------|-------------------------------
E---------|--3-----3----------------------------|--------6--------6--------6----


G---------|----------------------------------------|----------------------------
D---8-----|--8--------8--------8-------------------|-----------8-----8--8--8----
A---------|-----------------------------6-----6h8--|----------------------------
E------6--|--------6--------6--------6-------------|--6-----6-------------------


G---------------------|-----------------------------------||--------------------
D---8--8--8--8--6-----|-----------8--------8--------8--8--||*-----------8-------
A------------------8--|-----------------------------------||*-------------------
E---------------------|--6-----6--------6--------6--------||---6-----6----------


G----------------------||-----------------------------|-------------------------
D---8-----------8--8--*||-----------------------------|-------------------------
A---------------------*||-----------------------------|-------------------------
E------6-----6---------||--5-----5-----5-----5-----5--|--5-----5-----5-----5----


G--------------|--------------------------------------------------|-------------
D--------------|--------------------------------------------------|-------------
A--------------|--------------------------------------------------|-------------
E------5-----0/|--5-----5--5-----5--5-----5--5-----5--5--5--5--5--|--5-----5----


G-----------------------------------|-------------------------------------------
D-----------------------------------|-------------------------------------------
A---------------------------------0/|--5-----5--------------------2-----2--3----
E---5-----5--5-----5--5-----5--5----|-----------0-----0--3-----3----------------


G------|------------------------------------------------|-----------------------
D------|-------------------------------9-----9--10--11--|--12-----12--14--------
A---4--|--5-----5--7-----7--10-----10-------------------|-----------------------
E------|------------------------------------------------|-----------------------


G-------12--13--12--13--13--13--|--14--14--14--14--14-----14--14--14--14--14----
D---14--------------------------|-----------------------------------------------
A-------------------------------|-----------------------------------------------
E-------------------------------|-----------------------------------------------


G------14--|--14--14--14--14--14-----14--14-----14--14--|--19--19--19--19-------
D----------|--------------------------------------------|-----------------------
A----------|--------------------------------------------|-----------------------
E----------|--------------------------------------------|-----------------------


G---19-----19--19--19--19--19--19--|--19--19-----19--19-----19--19-----19-------
D----------------------------------|--------------------------------------------
A----------------------------------|--------------------------------------------
E----------------------------------|--------------------------------------------


G---19|--------------------------------------|---------------------------------
D------|--------------------------------------|--2--2-----3--3-----5--5---------
A------|--0--0-----2--2-----3--3-----5--5-----|---------------------------------
E------|--------------------------------------|---------------------------------


G------------|---------------------9---|---------------------------------------
D---7--7-----|--10--10-----10--12-------|---------------------------------------
A------------|--------------------------|--------------------5-----7--7--7------
E------------|--------------------------|--5-----5--8-----8---------------------


G---------------|-----------------------------------------------|---------------
D---5--5--7--7--|-----------------------------------5--5--7--7--|---------------
A---------------|--------------------5-----7--7--7--------------|---------------
E---------------|--5-----5--8-----8-----------------------------|--5-----5------

4:28
G------------------------------------|-----------------|------------------------
D------------------------------5--7--|-----------------|------------------------
A------------5-----5--7-----7--------|-----------------|------------------------
E---8-----8--------------------------|--5--------------|--5-----5--8-----8------


G------------------------------|------------------------------------------------
D------------------5--5--7--7--|-----------------------------------5--5--7------
A---5-----5--7--7--------------|--------------------5-----7--7--7---------------
E------------------------------|--5-----5--8-----8------------------------------


G------|-------------------------------------------------|----------------------
D---7--|-------------------------------------7--7--9--9--|--9--9--9---/9--9-----
A------|----------------------7-----7--9--9--------------|----------------------
E------|--7-----7--10-----10-----------------------------|----------------------


G----------------------------------------|--------------------------------------
D---9---/9--9--9---/9--9--9--9--9--9--9--|--------------------------------------
A----------------------------------------|--------------------5-----5--7--7-----
E----------------------------------------|--5-----5--8-----8--------------------


G---------------|-----------------------------------------------|---------------
D---5--5--7--7--|-----------------------------------5--5--7--7--|---------------
A---------------|--------------------5-----7--7--7--------------|---------------
E---------------|--5-----5--8-----8-----------------------------|--7-----7------


G-----------------------------------------|-------------------------------------
D-----------------------------7--7--9--9--|/9--9--9---/9--9--9---/9--9--9-------
A--------------7-----7--9--9--------------|-------------------------------------
E---10-----10-----------------------------|-------------------------------------


G----------------------|-----------------------|-----------------------|--------
D---/9--9--9--9--7-----|-----------------------|-----------------------|--------
A-------------------9--|--7-----7-----7--------|-----------------------|--------
E----------------------|-----------------------|--2-----2-----2--------|--3-----


G----------------------------------------|-----------------------|--------------
D----------------------------------------|-----------------------|--------------
A----------------/10--10--10--10--10-----|-----------------------|--------------
E------3-----3---------------------------|--2-----2-----2--------|--0-----0-----


G---------------|-----------------------|-----------------------|---------------
D---------------|-----------------------|-----------------------|---------------
A---------------|-----------------------|-----------------------|---------------
E------0--------|--2-----2-----2--------|--3-----3-----3--------|--8-----------

Guitar 5:31 4x
G------|--------------------||----------------------------||--------|-----------
D------|--------------------||*--4-----4-----4-----4-----*||--------|-----------
A------|--------------------||*--------------------------*||--------|-----------
E------|--------------------||----------------------------||--------|--2--------


G------------||-----------------------------------------------------------------
D------------||-----------------------------------------------------------------
A------------||-----------------------------------------------------------------
E------------||-----------------------------------------------------------------


================================================================================
== Created with a demo version of BUCKET O' TAB ==
== tablature creation software for Windows ==
== http://www.his.com/~gse/bucket ==
================================================================================




Ваше мнение



Капча