Artist- Yellowcard
Song- Something of value
Tabber- Iconoclast
Tuning- Normal
Intro
------------------------
------------------------
-0-0-0-0-0-0-0-0--------
-5-5-5-5-5-5-5-5--------
------------------------
------------------------
Riff 1- Each chord 16x (prechorus)
-0--3-0------------------------
-1--3-3------------------------
-0--0-2------------------------
-2--0-0------------------------
-3--2-x------------------------
----3-2------------------------
Riff 2- Each chord 8x
-0-0-0-0------------------------
-0-0-0-8------------------------
-0-4-4-9------------------------
-2-5-5-9------------------------
-2-4-3-7------------------------
-0-----0------------------------
Riff 3- Each chord 8x
-------0---------------------
-------8---------------------
-4-4-4-9---------------------
-5-5-5-9---------------------
-5-4-3-7---------------------
-------0---------------------
Riff 4- Each chord 5x (Chorus)
-3-0-0-0-3-0-0------------------
-3-1-0-1-3-2-1------------------
-0-2-0-0-0-3-0------------------
-0-2-2-2-0-0-2------------------
-2-0-2-3-2-x-3------------------
-3---0---3-2--------------------
Riff 5
------------------------------------------------------------
-----------------------8-----8-----------------------8-----8
-----------4-----4-----------------4-----4-----4------------
-----2---5-----5-----9-----9-----5-----5-----5-----9-----9--
---2---4-----3-----7-----7-----5-----4-----3-----7-----7----
-0----------------------------------------------------------
Setup
Intro
Riff 1
Riff 2
Riff 3
Riff 1
Riff 4
Riff 5
Riff 2
Riff 1
Riff 4
String part with no guitar
Riff 1




Ваше мнение



Капча