Tabbed by jonathan
Standard Tuning
Intro/Verse
Guitar 1
e-----------------------------
B-----------------------------
G---1----------------7--------
D---2-x4----4--------7-x8-----
A---2-------4-x5-----5--------
E-----------2-----------------
pm.........................
(Theres a place on ocean avenue..)
Verse
Guitar 2
e----------------------------------------------------
B----------------------------------------------------
G----------------------------------------------------
D----------------------------------------------------
A--/11---11--12---12--9---/11---11--12---12--9-7---
E-----12-------12--------------12-------12-----------
(Staying up all night)
e----------------------------------------------------
B----------------------------------------------------
G-------------------11--13----------------11--9--11-
D----------------------------------------------------
A--/11---11--12---12--------11--11--12---12----------
E-----12--------12------------12------12-------------
Chorus
Guitar 1 & 2
e-----------------------------------------
B-----------------------------------------
G--1-----------7--------------------------
D--2x8---4-----7x16-----------------------
A--2-----4x8---5--------------------------
E--------2--------------------------------
(If I could find you now...)
Bridge
Guitar 1
e--------------------------------------------
B--------------------------------------------
G--2------2---------------------------7------
D--2x10---2x16---4------6------7------7x16---
A--0------0------4x16---x-x4---x-x4---5------
E----------------2------4------5-------------
Guitar 2
e--------0--------
B------0---0------
G--1h2------------
D-----------------
A-----------------
E-----------------
(Repeat until Chorus)

Ending
e-------------------------
B-------------------------
G---7--6--9--7------------
D---7--6--9--7------------
A---5--4--7--5------------
E-------------------------
-Order of Song-
Intro
Verse
Interlude/Verse
Chorus
Bridge
Chorus
Ending




Ваше мнение



Капча