Yellowcard-Inside out
First tab i know of for this song
In Drop D tuning
Guitar 1
Intro This part played 2x
e|--------------------------------|--------------------------------|
b|--------------------------------|--------------------------------|
g|-7-7--7-7-7-7-7--7-7--7-7-7-7-7-|--------------------------------|
d|-7-7--7-7-7-7-7--7-7--7-7-7-7-7-|-2-2--2-2-2-2-2--2-2--2-2-2-2-2-|
a|-5-5--5-5-5-5-5--5-5--5-5-5-5-5-|-2-2--2-2-2-2-2--2-2--2-2-2-2-2-|
D|--------------------------------|-2-2--2-2-2-2-2--2-2--2-2-2-2-2-|
e|--------------------------------|--------------------------------|
b|--------------------------------|--------------------------------|
g|-4-4--4-4-4-4-4--4-4--4-4-4-4-4-|--------------------------------|
d|-4-4--4-4-4-4-4--4-4--4-4-4-4-4-|-5-5--5-5-5-5-5--5-5--5-5-5-5-5-|
a|-2-2--2-2-2-2-2--2-2--2-2-2-2-2-|-5-5--5-5-5-5-5--5-5--5-5-5-5-5-|
D|--------------------------------|-5-5--5-5-5-5-5--5-5--5-5-5-5-5-|
Verse (here, a little sympathy...)
No Guitar 1
Verse Cont'd (x4)
e|--------------------------------|
b|--------------------------------|
g|-7-7--7-7-7-6-6--7-7--7-7-7-6-6-|
d|-7-7--7-7-7-7-7--7-7--7-7-7-7-7-|
a|-5-5--5-5-5-5-5--5-5--5-5-5-5-5-|
Chorus
e|-----------------------------------------------------|
b|-----------------------------------------------------|
g|---------------------6-6--4-4~-----------------------|
d|-0-0-0-0---5-5--0-0~--6-6--4-4~--2-2--5-5~---0-0-0-0-|
a|-0-0-0-0---5-5--0-0~--4-4--2-2~--2-2--5-5~---0-0-0-0-|
D|-0-0-0-0---5-5--0-0~-------------2-2--5-5~---0-0-0-0-|
. . . . . . . .
e|------------------------------------|
b|------------------------------------|
g|------------------------------------|
d|-2-2-2-2--4-4-4-4--5-5-5-5--7-7-7-7-|
a|-2-2-2-2--4-4-4-4--5-5-5-5--7-7-7-7-|
D|-2-2-2-2--4-4-4-4--5-5-5-5--7-7-7-7-|
Verse 2 (Here, a little jealousy...)
Play Verse Cont'd 4x
Interlude
e|----------------------------|
b|----------------------------|
g|-7-------------2------------|
d|-7-x16--2------2-x16--5-----|
a|-5------2-x16--0------5-x16-|
D|--------2-------------5-----|
Chorus (x2)
Bridge
No Guitar 1
Bridge Cont'd
e|--------------------------------|--------------------------------|
b|--------------------------------|--------------------------------|
g|-7-7--7-7-7-7-7--7-7--7-7-7-7-7-|--------------------------------|
d|-7-7--7-7-7-7-7--7-7--7-7-7-7-7-|-2-2--2-2-2-2-2--2-2--2-2-2-2-2-|
a|-5-5--5-5-5-5-5--5-5--5-5-5-5-5-|-2-2--2-2-2-2-2--2-2--2-2-2-2-2-|
D|--------------------------------|-2-2--2-2-2-2-2--2-2--2-2-2-2-2-|
e|--------------------------------|--------------------------------|
b|--------------------------------|--------------------------------|
g|-2-2--2-2-2-2-2--2-2--2-2-2-2-2-|--------------------------------|
d|-2-2--2-2-2-2-2--2-2--2-2-2-2-2-|-5-5--5-5-5-5-5--5-5--5-5-5-5-5-|
a|-0-0--0-0-0-0-0--0-0--0-0-0-0-0-|-5-5--5-5-5-5-5--5-5--5-5-5-5-5-|
D|--------------------------------|-5-5--5-5-5-5-5--5-5--5-5-5-5-5-|
Chorus (x3) (play the first part softly for the first time)
Outro
Play Intro
Ending
e|-----------|
b|-----------|
g|-----------|
d|-5-5--0-0~-|
a|-5-5--0-0~-|
D|-5-5--0-0~-|
Guitar 2
Intro (x8) (Come in after Guitar is done with first set of D chords)
e|-----------------------|
b|-----------------------|
g|-----------------------|
d|-16-16--16-12h14-12h14-|
a|-----------------------|
D|-----------------------|
Verse and Verse Cont'd
No Guitar 2
Chorus
Same as Guitar 1
Verse 2
e|--------------------------------|--------------------------------|
b|--------------------------------|--------------------------------|
g|-7-7--7-7-7-7-7--7-7--7-7-7-7-7-|--------------------------------|
d|-7-7--7-7-7-7-7--7-7--7-7-7-7-7-|-2-2--2-2-2-2-2--2-2--2-2-2-2-2-|
a|-5-5--5-5-5-5-5--5-5--5-5-5-5-5-|-2-2--2-2-2-2-2--2-2--2-2-2-2-2-|
D|--------------------------------|-2-2--2-2-2-2-2--2-2--2-2-2-2-2-|
e|--------------------------------|--------------------------------|
b|--------------------------------|--------------------------------|
g|-4-4--4-4-4-4-4--4-4--4-4-4-4-4-|--------------------------------|
d|-4-4--4-4-4-4-4--4-4--4-4-4-4-4-|-5-5--5-5-5-5-5--5-5--5-5-5-5-5-|
a|-2-2--2-2-2-2-2--2-2--2-2-2-2-2-|-5-5--5-5-5-5-5--5-5--5-5-5-5-5-|
D|--------------------------------|-5-5--5-5-5-5-5--5-5--5-5-5-5-5-|
Interlude
I can't tell how what he is playing goes, i'll figure it out and update
Chorus (x2)
Bridge (x6)
e|---7-----------|
b|-----10----8-7-|
g|--------11-----|
d|-0-------------|
a|---------------|
D|---------------|
Bridge Cont'd
Same as Guitar 1
Chorus (x3)
Outro
Play intro (x8)
Ending
Same as Guitar 1




Ваше мнение



Капча