Bah, there wasn't a tab of this so I decided to make one... bad idea. Anyway if you
want to know what I think it is well, then read it. Otherwise look no further.
Gifts and curses tabs:
Standard
Intro:
A, B, C#, High E
Verse:
Different plucking of full bar chord A, something like this
-------------------------------------------|
---------------------------------------5---|
-------6-------------6---------------6-----|
---7------7-----7-------7------7---7-------|
-----7------------7--------------7---------|
-5-----------5--------------5--------------|
Instrumental Lick/Prechorus:
------------------------------------|
------------------------------------|
------------------------------------|
------------------------------------|
------------------------------------|
-0------2-------5-------------------|
Chorus:
A, E, F#, A, A, C#, A, High E, D
All complaints or pity comments or anything else email [email protected]




Ваше мнение



Капча