Yellowcard
Cigarette
One For The Kids
Tabbed by: Vince A.
DROP D TUNING (DADGBe)
intro and verses
e|-----------------------------|
B|-------------3---------------|
G|-7-6-7-2-4-2-2-7-6-7-11-9-11-|
D|-0-0-0-0-0-4-0-0-0-0-12-7-12-|
A|-0-0-0-0-0-0-0-0-0-0-12-7-12-|
D|-0-7-9-4-5-0-0-0-7-9--0-7--0-|
pre chorus
e|-------------------|
B|-----------------7-|
G|-2-2-2-2-----7-9-x-|
D|-4-5-4-5-9-5-5-5-5-|
A|-0-0-0-0-9-5-5-5-5-|
D|-0-0-0-0-9-5-5-5-5-|
^-----^
little fill before chorus

chorus
e|------------------|
B|------------------|
G|-11-9-7-7-11-9----|
D|-12-7-9-7-12-7-11-|
A|-12-7-9-7-12-7-12-|
D|--0-7-9-5--0-7-11-|
violin solo (arranged for guitar)
e|-----------------------------------------------9-10-12-14-15p14---|
B|----------------------------------10-12p10--10-----------------15-|
G|-11~~12p11--12p11--9-9h11p9--11-12--------12----------------------|
D|----------12-----12--------12-------------------------------------|
A|------------------------------------------------------------------|
D|------------------------------------------------------------------|
Bridge
e|---------------------------|
B|-------------------------7-|
G|-7-9-7-9-2-2-2-2-----7-9-x-|
D|-5-7-5-7-4-5-4-5-9-5-5-5-5-|
A|-5-7-5-7-0-0-0-0-9-5-5-5-5-|
D|-5-7-5-7-0-0-0-0-9-5-5-5-5-|

end on
e|-------|
B|-10----|
G|-11~~~-|
D|-12~~~-|
A|-12~~~-|
D|--0~~~-|




Ваше мнение



Капча