BIG APPLE HEARTBREAK - Yellowcard

drop D tuning
Tabbed by: Greg ([email protected])
some lyrics are probably wrong but you get the idea

7x
7x means mute strings right after strum
7x

Intro (x2) clean
e:----------2-------------2--------------------------------------
B:-------3----3---3-----3---3---3-----3--3-3-3~------------------
G:--4-4--4------4---3-3-3-----3-------2--2-2-2~------------------
D:--------------------------------0-0------------0-0-0-0---------
A:-------------------------------------------------------4-4-0-0-
D:---------------------------------------------------------------
This can't be home anymore

e:----------2--------------2-------------------------------------
B:-------3----3---3-----3----3---3-------------------------------
G:--4-4--4------4---3-3-3------3---------------------------------
D:---------------------------------------------------------------
A:-----------------------------------0-------pick slide----------
D:-----------------------------------0---------------------------
This can't be home anymore
(distortion)

Pre-Verse (x2) distortion
(guitar 1)
e:---------------------------------------------------------------
B:---------------------------------------------------------------
G:---------------------------------------------------------------
D:--------4-4-4--4----------------------------------5-5-5--5-----
A:--------5-5-5--5----------------------------------5-5-5--5-----
D:-0--0--------------0-0-0--0----0-0-7--4--0--5-5----------------

(guitar 2)
e:---------------------------------------------------------------
B:---------------------------------------------------------------
G:---------------------------------------------------------------
D:-------------------------------0-0-2--0--4---------------------
A:---------------------------------------------------------------
D:--------------------------------------------5-5----------------

(guitar 1)
e:---------------------------------------------------------------
B:---------------------------------------------------------------
G:---------------------------------------------------------------
D:---------------------------------------------------------------
A:-----------------------4---------------------------------------
D:-5-5-5--5----5-5-5--7-----7------------------------------------

(guitar 2)
e:---------------------------------------------------------------
B:---------------------------------------------------------------
G:---------------------------------------------------------------
D:-----------------------4---------------------------------------
A:-------------5-5-4--5------------------------------------------
D:---------------------------------------------------------------

Verse (x4) clean
e:---------------------------------------------------------------
B:---------------------------------------------------------------
G:----7-----7---7-----7-----7---7-----7-----7---7-----7-----6---6
D:--7-----7---7-----7-----7---7-----7-----7---7-----7-----7---7--
A:5-----5---------4-----4----------------------------------------
D:--------------------------------5-----5---------7-----7--------
If you think I have not been
missing the way she breathes you are
mistaken my friend I'm fallin down so put your
mouth on my bloody ????

Chorus part 1 (x2) distortion
e:---------------------------------------------------------------
B:---------------------------------------------------------------
G:---------------------------------------------------------------
D:---------------------------------------------------------------
A:5-5-5-5-5-5-5-5-5-5-5-5-5-5-5-5-7-7-7-7-7-7-7-7-0-0-0-0-0-0-0-0
D:4-4-4-4-4-4-4-4-5-5-5-5-5-5-5-5-7-7-7-7-7-7-7-7-0-0-0-0-0-0-0-0
One night with me and I've broken your trust
I hate to be the one you know is gonna bust

Chorus part 2
e:---------------------------------------------------------------
B:---------------------------------------------------------------
G:---------------------------------------------------------------
D:---------------------------------------------------------------
A:5-5-5-5-5-5-5-5-5-5-5-5-5-5-5-5-7-7-7-7-7-7-7-7----------------
D:4-4-4-4-4-4-4-4-5-5-5-5-5-5-5-5-7-7-7-7-7-7-7-7----------------
Hurting lungs breathing.....

e:---------------------------------------------------------------
B:---------------------------------------------------------------
G:---7--7-7-7--7--7--7--7--7-------------------------------------
D:---7--7-7-7--7--7--7--7--7-------------------------------------
A:---5--5-5-5--5--5--5--5--5-------------------------------------
D:---------------------------------------------------------------
pm ............ ...
sighs of disgust

e:---------------------------------------------------------------
B:---------------------------------------------------------------
G:---------------------------------------------------------------
D:-------------0-0-------------0-0-------------------------------
A:-2-2-2-4-4-4-----1-1-1-4-4-4---------5---4---2-------5---4---0-
D:---------------------------------0-0---0---0---0-0-0---0---0---

repeat intro (x2) w/out pick slide

Verse with distortion
e:---------------------------------------------------------------
B:---------------------------------------------------------------
G:7-7-7-7-7-7-7-7-7-7-7-7-7-7-7-7--------------------------------
D:7-7-7-7-7-7-7-7-7-7-7-7-7-7-7-7-5-5-5-5-5-5-5-5-7-7-7-7-7-7-7-7
A:5-5-5-5-5-5-5-5-4-4-4-4-4-4-4-4-5-5-5-5-5-5-5-5-7-7-7-7-7-7-7-7
D:--------------------------------5-5-5-5-5-5-5-5-7-7-7-7-7-7-7-7
pm.... ..... .. .... ..... .. .... ..... .. .... ..... ..
now cold concrete blank walls are

e:---------------------------------------------------------------
B:---------------------------------------------------------------
G:7-7-7-7-7-7-7-7-7-7-7-7-7-7-7-7--------------------------------
D:7-7-7-7-7-7-7-7-7-7-7-7-7-7-7-7-5-5-5-5-5-5-5-5-7x-------------
A:5-5-5-5-5-5-5-5-4-4-4-4-4-4-4-4-5-5-5-5-5-5-5-5-7x-------------
D:--------------------------------5-5-5-5-5-5-5-5-7x--------12/--
pm.... ..... .. .... ..... .. .... ..... ..
staring into your lonely eyes I duck behind

e:---------------------------------------------------------------
B:---------------------------------------------------------------
G:7-7-7-7-7-7-7-7-7-7-7-7-7-7-7-7--------------------------------
D:7-7-7-7-7-7-7-7-7-7-7-7-7-7-7-7-5-5-5-5-5-5-5-5-9-7-7-7-7-7-7-9
A:5-5-5-5-5-5-5-5-4-4-4-4-4-4-4-4-5-5-5-5-5-5-5-5-9-7-7-7-7-7-7-9
D:--------------------------------5-5-5-5-5-5-5-5-9-7-7-7-7-7-7-9
them and hope that you won't go And ask for

e:---------------------------------------------------------------
B:---------------------------------------------------------------
G:---------------------------------------------------------------
D:0-0-0-0-0-0-0-0-2-2-2-2-2-2-2-2-4-4-4-4-4-4-4-4-7-7-7-7-7-7-7-5
A:---------------------------------------------------------------
D:---------------------------------------------------------------
answers to why I made you cry

e:---------------------------------------------------------------
B:---------------------------------------------------------------
G:---------------------------------------------------------------
D:--4~ (let ring into next part----------------------------------
A:---------------------------------------------------------------
D:---------------------------------------------------------------

Repeat Guitar 1 Pre Verse (x3) w/out distortion
I never wanted us to fade out
lasting on a love that fell apart
Where are you? I need you
You still have, still have my heart

Repeat Pre verse (x3) with distortion
same lyrics as above

Repeat Chorus (parts 1 and 2)

Repeat Intro (x2)

Interlude
Guitar 1
e:---------------------------------------------------------------
B:---------------------------------------------------------------
G:---------------------------------------------------------------
D:-------------------------------------------------------(x3)----
A:-5--5--5-5--5-5--5--5-5--5-5--5--5-5--5-5--5--5-5--5-----------
D:-4--4--4-4--4-4--4--4-4--4-5--5--5-5--5-5--5--5-5--5-----------
pm...................................................

Guitar 2 (listen to song for when to come in)
e:---------------------------------------------------------------
B:-------------------8-7--7-7h8h7--------------------------------
G:--7--7--9--7-7--7----------------------------------------------
D:--7--7-----7-7--5----------------------------------------------
A:---------------------------------------------------------------
D:---------------------------------------------------------------

Guitar 1
e:---------------------------------------------------------------
B:---------------------------------------------------------------
G:---------------------------------------------------------------
D:---------------------------------------------------------------
A:-5--5--5-5--5-5--5--5-5--5--5--5x----------5--5x---------------
D:-4--4--4-4--4-4--4--4-4--4--5--5x----------5--5x---------------
pm.........................

Guitar 2
e:-------------------------------------------5--5---5h7p5--------
B:---------------------------------------------------------------
G:----------------------------7--7---7h9p7-----------------------
D:---------------------------------------------------------------
A:---------------------------------------------------------------
D:---------------------------------------------------------------

Outro
Guitar 1 (x3)
e:---------------------------------------------------------------
B:---------------------------------------------------------------
G:---------------------------------------------------------------
D:---------------------------------------------------------------
A:--0--0--0--0--0--0--0--0--5--5--5--5--5--5--5--5---------------
D:--0--0--0--0--0--0--0--0--5--5--5--5--5--5--5--5---------------
Open up my heart
Open up my heart
Open up my heart

Guitar1
e:---------------------------------------------------------------
B:---------------------------------------------------------------
G:---------------------------------------------------------------
D:--0--0--0--0--0--0--0--0--5x------------------------------0-0x-
A:--0--0--0--0--0--0--0--0--5x------------------------------0-0x-
D:---------------------------------------------------------------
Open up my hea- -rt

Guitar 2 (solo during outro)
e:---------------------------------------------------------------
B:--10----------------10----------10-----------------------------
G:------12--11------------12--11-----12-11-12-11h12p11-----------
D:--------------12-----------------------------------------------
A:---------------------------------------------------------------
D:---------------------------------------------------------------

e:---------------------------------------------------------------
B:--10----------------10h12p10-----------------------------------
G:------12--11------------------12--11---------------------------
D:--------------12----------------------12x----------------------
A:---------------------------------------------------------------
D:----------------------------------------------------------0-0x-




Ваше мнение



Капча