Xzibit - Multiply
Tabbed By: rap_boy
EMail: [email protected]
intro part 1
g|-----------------------------------------
d|-----------------------------------------
a|-0--0-0-0-3--0-0-0--0-3-5-3-0--0-5-7-5-0-
e|-----------------------------------------
intro part 2
g|-------------------------------------
d|-------------------------------------
a|-0-0-0--0-0-0--0-3-5-3-0---0-5-7-5-0-
e|-------------------------0-----------
rest of song
riff 1
g|--------------------------------------
d|--------------------------------------
a|-0-0-0-3--0-0-0--0-3-5-3-0--0-5-7-5-0-
e|--------------------------------------
riff 2
g|-------------------------------------
d|-------------------------------------
a|-0-0-0--0-0-0--0-3-5-3-0---0-5-7-5-0-
e|-------------------------0-----------
intro part 1 x1
intro part 2 x1
rest of song
riff 1 x1
riff 2 x1





Ваше мнение



Капча