------------------------------------------------------------------------------
Wyclef Jean - Two Wrongs (Opening Solo)
------------------------------------------------------------------------------
Listen to the song for the rythm (it’s kinda off beat a little bit)
By:jojobear00

e|-----------0---------|-------0--|-----------|----------0-----------------|
B|-5/7-10-7----2-0-----|----------|-------3-2-|-5/7-10-7---2-0-------------|
G|-----------------2---|-----0----|-----2-----|----------------2-----------|
D|---------------------|---2------|---0-------|----------------------------|
A|---------------------|-3--------|-2---------|----------------------------|
E|---------------------|----------|-----------|----------------------------|

e|-------0--|-----------|-------0------------------------------------------|
B|----------|-------3---|-------2------------------------------------------|
G|-----0----|-----2-----|-----2--------------------------------------------|
D|---2------|---0-------|---2----------------------------------------------|
A|-3--------|-2---------|-0------------------------------------------------|
E|----------|-----------|--------------------------------------------------|




Ваше мнение



Капча