ARTIST: WOLFGANG
SONG: SERVE IN SILENCE
ALBUM: SERVE IN SILENCE
TRANSCRIBED BY: DISPLACER
0:01

eb|------------------------------------------------------------|
bb|------------------------------------------------------------|
gb|----------12-11-x-------------------------------------------|
Db|--9--------x--x x-10-h11------------7-------------------7---|
Ab|--9-(7)x--10--9-x--------9--6-p0-h6-----6-p0-6----0-h6------|
Eb|--7-p0-x----------------------------------------------------|
0:06

eb|------------------------------------------------------------|
bb|------------------------------------------------------------|
gb|----------12-11-x-------------------------------------------|
Db|--9--------x--x x-11-p10---------------------7--------------|
Ab|--9-(7)x--10--9-x--------9--------------5-h6------------4---|
Eb|--7-p0-x--------------------6-p0--6-9-------------6-5-5-----|
0:11
eb|------------------------------------------------------------|
bb|------------------------------------------------------------|
gb|----------12-11-x-------------------------------------------|
Db|--9--------x--x x-10-h11------------7-------------------7---|
Ab|--9-(7)x--10--9-x--------9--6-p0-h6-----6-p0-6----0-h6------|
Eb|--7-p0-x----------------------------------------------------|
0:16
P.M................
eb|-----------------------------------------------|
bb|-----------------------------------------------|
gb|----------12-11-x------------------------------|
Db|-----------x--x x-11-p10-----------------------|
Ab|--9-(7)x--10--9-x--------9---------------------|
Eb|--7-p0-x-------------------8767-8767-8767-8767-|
0:21
eb|----------------------|-----------------------|
bb|----------------------|-----------------------|
gb|----------------------|-----------------------|
Db|-----0----------------|-----0-----------------|
Ab|-------43-----43------|-------43-----43-------|
Eb|-210------432---43013-|-210------432----43013-|
eb|----------------------|-----------------------|
bb|----------------------|-----------------------|
gb|----------------------|-----------------------|
Db|-----0----------------|-----0-----------------|
Ab|-------43-----43------|-------43-----43-------|
Eb|-210------432---43013-|-210------432----43013-|
0:32
eb|-----------|-----------|-----------|-----------|
bb|-----------|-----------|-----------|-----------|
gb|-1211---9-|-1211---9-|-1211---9-|-1211---9-|
Db|--x--x-0-x-|--x--x-0-x-|--x--x-0-x-|--x--x-0-x-|
Ab|-10-9---7-|-10-9---7-|-10-9---7-|-10-9---7-|
Eb|-----------|-----------|-----------|-----------|
eb|-----------|-----------|-----------|-----------|---------|
bb|-----------|-----------|-----------|-----------|---------|
gb|-1211---9-|-1211---9-|-1211---9-|-1211---9-|-1211---|
Db|--x--x-0-x-|--x--x-0-x-|--x--x-0-x-|--x--x-0-x-|--x--x-0-|
Ab|-10-9---7-|-10-9---7-|-10-9---7-|-10-9---7-|-10-9---|
Eb|-----------|-----------|-----------|-----------|---------|
0:43
eb|-----------|-----------|-----------|-----------|-----------|-----------|
bb|-----------|-----------|-----------|-----------|-----------|-----------|
gb|-9-9-1211-|-9-9-1211-|-9-9-1211-|-9-9-1211-|-9-9-1211-|-9-9-1211-|
Db|-x x--x----|-x x--x----|-x x--x----|-x x--x----|-x x--x----|-x-x--x----|
Ab|-7-7-10-9-|-7-7-10-9-|-7-7-10-9-|-7-7-10-9-|-7-7-10-9-|-7-7-10-9-|
Eb|-----------|-----------|-----------|-----------|-----------|-----------|
eb|-----------|-----------|-----------|-----------|-----------|-----------|
bb|-----------|-----------|-----------|-----------|-----------|-----------|
gb|-9-9-1211-|-9-9-1211-|-9-9-1211-|-9-9-1211-|-9-9-1211-|-9-9-1211-|
Db|-x x--x----|-x x--x----|-x x--x----|-x x--x----|-x x--x----|-x-x--x----|
Ab|-7-7-10-9-|-7-7-10-9-|-7-7-10-9-|-7-7-10-9-|-7-7-10-9-|-7-7-10-9-|
Eb|-----------|-----------|-----------|-----------|-----------|-----------|
1:05
eb|-----------|-----------|-----------|------------|
bb|-----------|-----------|-----------|------------|
gb|-9-9-1211-|-9-9-1211-|-9-9-1211-|-9-9-10-----|
Db|-x x--x----|-x x--x----|-x x--x----|-x x--x-10-|
Ab|-7-7-10-9-|-7-7-10-9-|-7-7-10-9-|-7-7--8-----|
Eb|-----------|-----------|-----------|------------|
1:07
eb|-------------|
bb|-------------|
gb|----4---4--4-|
Db|-2h3-2h3-2---|
Ab|-------------|
Eb|-------------|
1:09
eb|----------------------|----------------------|
bb|----------------------|----------------------|
gb|-------------4--4-4-4-|-------------4--4-4-4-|
Db|-2---3-2---3-2--2-2-2-|-2---3-2---3-2--2-2-2-|
Ab|---2-----2---2--2-2-2-|---2-----2---2--2-2-2-|
Eb|----------------------|----------------------|
1:20

eb|----------------------|----------------------|-------------|
bb|----------------------|----------------------|-------------|
gb|-------------4--4-4-4-|-------------4--4-4-4-|-------------|
Db|-2---3-2---3-2--2-2-2-|-2---3-2---3-2--2-2-2-|-2---3-2---3-|
Ab|---2-----2---2--2-2-2-|---2-----2---2--2-2-2-|---2-----2---|
Eb|----------------------|----------------------|-------------|
eb|----------------------------------|
bb|----------------------------------|
gb|-4-4-4-4-5-5-5-5-4-4-4-4--54-----|
Db|-2-2-2-2-3-3-3-3-2-2-2-2--------6-|
Ab|-2-2-2-2-3-3-3-3-2-2-2-2--32-0-4-|
Eb|----------------------------------|
eb|------------------------------------------|
bb|------------------------------------------|
gb|-4-4-4-4-5-5-5-5-4-4-4-4------------------|
Db|-2-2-2-2-3-3-3-3-2-2-2-2------------------|
Ab|-2-2-2-2-3-3-3-3-2-2-2-2-32-0------------|
Eb|-------------------------------0-2-p0-1-2-|
eb|----------------------------------|
bb|----------------------------------|
gb|-4-4-4-4-5-5-5-5-4-4-4-4--54-----|
Db|-2-2-2-2-3-3-3-3-2-2-2-2--------6-|
Ab|-2-2-2-2-3-3-3-3-2-2-2-2--32-0-4-|
Eb|----------------------------------|
eb|------------------------------------------|
bb|------------------------------------------|
gb|-4-4-4-4-5-5-5-5-4-4-4-4------------------|
Db|-2-2-2-2-3-3-3-3-2-2-2-2------------------|
Ab|-2-2-2-2-3-3-3-3-2-2-2-2-32-0------------|
Eb|-------------------------------0-2-p0-1-2-|
1:43
eb|----------------------|----------------------|
bb|----------------------|----------------------|
gb|-------------4--4-4-4-|-------------4--4-4-4-|
Db|-2---3-2---3-2--2-2-2-|-2---3-2---3-2--2-2-2-|
Ab|---2-----2---2--2-2-2-|---2-----2---2--2-2-2-|
Eb|----------------------|----------------------|


eb|----------------------|----------------------|---------|
bb|----------------------|----------------------|---------|
gb|-------------4--4-4-4-|-------------4--4-4-4-|-1211---|
Db|-2---3-2---3-2--2-2-2-|-2---3-2---3-2--2-2-2-|-------0-|
Ab|---2-----2---2--2-2-2-|---2-----2---2--2-2-2-|-10-9---|
Eb|----------------------|----------------------|---------|
1:55
eb|-----------|-----------|-----------|-----------|-----------|-----------|
bb|-----------|-----------|-----------|-----------|-----------|-----------|
gb|-9-9-1211-|-9-9-1211-|-9-9-1211-|-9-9-1211-|-9-9-1211-|-9-9-1211-|
Db|-x x--x----|-x x--x----|-x x--x----|-x x--x----|-x x--x----|-x-x--x----|
Ab|-7-7-10-9-|-7-7-10-9-|-7-7-10-9-|-7-7-10-9-|-7-7-10-9-|-7-7-10-9-|
Eb|-----------|-----------|-----------|-----------|-----------|-----------|
eb|-----------|-----------|-----------|-----------|-----------|-----------|
bb|-----------|-----------|-----------|-----------|-----------|-----------|
gb|-9-9-1211-|-9-9-1211-|-9-9-1211-|-9-9-1211-|-9-9-1211-|-9-9-1211-|
Db|-x x--x----|-x x--x----|-x x--x----|-x x--x----|-x x--x----|-x-x--x----|
Ab|-7-7-10-9-|-7-7-10-9-|-7-7-10-9-|-7-7-10-9-|-7-7-10-9-|-7-7-10-9-|
Eb|-----------|-----------|-----------|-----------|-----------|-----------|
eb|-----------|-----------|-----------|
bb|-----------|-----------|-----------|
gb|-9-9-1211-|-9-9-1211-|-9-9-1211-|
Db|-x x--x----|-x x--x----|-x x--x----|
Ab|-7-7-10-9-|-7-7-10-9-|-7-7-10-9-|
Eb|-----------|-----------|-----------|
2:16
eb|-----------------|-------------|-------------|
bb|-----------------|-------------|-----------3-|
gb|-9-9-----------0-|-------------|-----------2-|
Db|-x x-42-p0--4-0-|-42-p0--4-5-|-42-p0--4-0-|
Ab|-7-7--------3----|--------3--3-|--------3----|
Eb|-----------------|-------------|-------------|
2:24
eb|---------------------------------------|
bb|---------------------------------------|
gb|-----------4------2--------------------|
Db|-42-p0--4---4-p0---4-p0-1---------1p0-|
Ab|--------3------------------5p0-1p0-----|
Eb|---------------------------------------|
2:28
eb|--------------------------|---------------------------|
bb|--------------------------|---------------------------|
gb|--------------------------|---------------------------|
Db|---------3-2---2-3---0----|---------3-2---2-3---0-----|
Ab|-----3-2-----------3--2-3-|-----3-2-----------3---2-3-|
Eb|-1-0----------------------|-1-0-----------------------|
GUITAR SOLO I: SUBMISSIONS ARE WELCOME!!! E-MAIL ME
2:33 - 3:00
^^
eb|----------------------------|
bb|-15b-(15)-p12---------------|
gb|-------------14-13----/16---|
Db|------------------14--------|
Ab|--------------------14------|
Eb|----------------------------|
2:55
eb|----------------------|-----------------------|
bb|----------------------|-----------------------|
gb|----------------------|-----------------------|
Db|-----0----------------|-----0-----------------|
Ab|-------43-----43------|-------43-----43-------|
Eb|-210------432---43013-|-210------432----43013-|
eb|----------------------|-----------------------|
bb|----------------------|-----------------------|
gb|----------------------|-----------------------|
Db|-----0----------------|-----0-----------------|
Ab|-------43-----43------|-------43-----43-------|
Eb|-210------432---43013-|-210------432----43013-|
3:05
eb|----------------------------------------|----------------------------------------|
bb|----12----------------------------------|----12----------------------------------|
gb|---9---10---x-9h10-9-----7-9------------|---9---10---x-9h10-9-----7-9------------|
Db|--9---------------------7---------------|--9---------------------7---------------|
Ab|--------------------------------0-5-7-8-|--------------------------------0-5-7-8-|
Eb|-0---------0----------00------0---------|-0---------0----------00------0---------|
eb|----------------------------------------|----------------------------------------|
bb|----12----------------------------------|----12----------------------------------|
gb|---9---10---x-9h10-9-----7-9------------|---9---10---x-9h10-9-----7-9------------|
Db|--9---------------------7---------------|--9---------------------7---------------|
Ab|--------------------------------0-5-7-8-|--------------------------------0-5-7-8-|
Eb|-0---------0----------00------0---------|-0---------0----------00------0---------|
GUITAR SOLO II
3:26 - 3:39
eb|-----------------------------------------------------|------15-18p15--15------------
bb|-15----15-----------------------18b-18b-18b18b18b18b-|-15h18--------18--18-15-18p15-
gb|-17b---17b-17-15h17-15--------15---------------------|------------------------------
Db|-------------------------15-17-----------------------|------------------------------
Ab|-----------------------------------------------------|------------------------------
Eb|-----------------------------------------------------|------------------------------
^^^^
-------------------------------------------------------------------------|
--15---------------------------------------------------------------------|
17--17-15-h17p15--15---------------------------------------------17b-----|
----------------17--17-15-17p15--15--------------------------------------|
-------------------------------17--17-15-17p15-13-15p1312-----13--------|
----------------------------------------------------------13h15----------|
3:37
eb|----------------------------------------|----------------------------------------|
bb|----12----------------------------------|----12----------------------------------|
gb|---9---10---x-9h10-9-----7-9------------|---9---10---x-9h10-9-----7-9------------|
Db|--9---------------------7---------------|--9---------------------7---------------|
Ab|--------------------------------0-5-7-8-|--------------------------------0-5-7-8-|
Eb|-0---------0----------00------0---------|-0---------0----------00------0---------|
eb|----------------------------------------|----------------------------------------|
bb|----12----------------------------------|----12----------------------------------|
gb|---9---10---x-9h10-9-----7-9------------|---9---10---x-9h10-9-----7-9------------|
Db|--9---------------------7---------------|--9---------------------7---------------|
Ab|--------------------------------0-5-7-8-|--------------------------------0-5-7-8-|
Eb|-0---------0----------00------0---------|-0---------0----------00------0---------|
GUITAR SOLO III
3:57 - 4:08
eb|-15--15--15--15---------------------------------------|-------------------------------
bb|-18b-18b-18b-18b-18b(18)-15h18p15---------------------|-------------------------------
gb|---------------------------------17b(17)15-----15-17b-|-------------------------15--15
Db|------------------------------------------15h17-------|------15--15-17p15--15h17--17--
Ab|------------------------------------------------------|-15h17--17--------17-----------
Eb|------------------------------------------------------|-------------------------------

^^^^
---------------------------------15-17p15--17p15--17p15--17p15--17p15--------15-18b-----|
------------15-18p15--15-18p15-18--------18-----18-----18-----18-----18-15h18-----------|
17p15--15h17--------17------------------------------------------------------------------|
-----17---------------------------------------------------------------------------------|
----------------------------------------------------------------------------------------|
----------------------------------------------------------------------------------------|
4:08
eb|---------|-----------|-----------|-----------|-----------|-----------|-----------|
bb|---------|-----------|-----------|-----------|-----------|-----------|-----------|
gb|-1211---|-9-9-1211-|-9-9-1211-|-9-9-1211-|-9-9-1211-|-9-9-1211-|-9-9-1211-|
Db|--x----0-|-x x--x----|-x x--x----|-x x--x----|-x x--x----|-x-x--x----|-x x--x----|
Ab|-10-9---|-7-7-10-9-|-7-7-10-9-|-7-7-10-9-|-7-7-10-9-|-7-7-10-9-|-7-7-10-9-|
Eb|---------|-----------|-----------|-----------|-----------|-----------|-----------|
eb|-----------|-----------|-----------|-----------|-----------|-----------|
bb|-----------|-----------|-----------|-----------|-----------|-----------|
gb|-9-9-1211-|-9-9-1211-|-9-9-1211-|-9-9-1211-|-9-9-1211-|-9-9-1211-|
Db|-x x--x----|-x x--x----|-x x--x----|-x x--x----|-x x--x----|-x x--x----|
Ab|-7-7-10-9-|-7-7-10-9-|-7-7-10-9-|-7-7-10-9-|-7-7-10-9-|-7-7-10-9-|
Eb|-----------|-----------|-----------|-----------|-----------|-----------|
eb|-----------|-----------|-----------|-------|
bb|-----------|-----------|-----------|-12-12-|
gb|-9-9-1211-|-9-9-1211-|-9-9-1211-|--9--9-|
Db|-x x--x----|-x x--x----|-x x--x----|-------|
Ab|-7-7-10-9-|-7-7-10-9-|-7-7-10-9-|-------|
Eb|-----------|-----------|-----------|-------|
4:30
eb|-------------------------|------------------|
bb|-------------------------|------------------|
gb|-4-4-4-----------------5-|-4-4-4-4--54-----|
Db|-2-2-2-x-3-p2----------3-|-2-2-2-2--x-----6-|
Ab|-2-2-2-x-----5-p3-p2-x-3-|-2-2-2-2--32-0-4-|
Eb|-0-0-0-------------------|-0-0-0-0----------|
eb|-------------------------|--------------------------|
bb|-------------------------|--------------------------|
gb|-4-4-4-----------------5-|-4-4-4-4------------------|
Db|-2-2-2-x-3-p2----------3-|-2-2-2-2------------------|
Ab|-2-2-2-x-----5-p3-p2-x-3-|-2-2-2-2-32-0------------|
Eb|-0-0-0-------------------|-0-0-0-0-------0-2-p0-1-2-|
eb|-------------------------|------------------|
bb|-------------------------|------------------|
gb|-4-4-4-----------------5-|-4-4-4-4--54-----|
Db|-2-2-2-x-3-p2----------3-|-2-2-2-2--x-----6-|
Ab|-2-2-2-x-----5-p3-p2-x-3-|-2-2-2-2--32-0-4-|
Eb|-0-0-0-------------------|-0-0-0-0----------|
^^
eb|-------------------------|------------------------|
bb|-------------------------|------------------------|
gb|-4-4-4-----------------5-|-4-4-4-4----------------|
Db|-2-2-2-x-3-p2----------3-|-2-2-2-2----------------|
Ab|-2-2-2-x-----5-p3-p2-x-3-|-2-2-2-2-1-p0-----------|
Eb|-0-0-0-------------------|-0-0-0-0------3-0-1-2---|

E N D




Ваше мнение



Капча