ARTIST : WOLFGANG
ALBUM : SEMENELIN (U.S. VERSION)/SEMENELIN
SONG : WATERMARKS/MATA NG DIYOS
TABBED BY : GUITAR WOLF
WHITE NUMBERS - BASS
RED NUMBERS - RIGHT HAND TAPPING
INTRO: GUITAR PARTS - NATURAL HARMONICS
e|------------------------------------------------------|
b|------------------------------------------------------|
g|---12--7-12-12--12--7-12-12--12--7-12-12--12--7-12-12-|
D|-12--12-------12--12-------12--12-------12--12--------|
A|---------------6------------3-------------------------|
E|--3--------------------------------------5------------|
VERSE I:
g|-------------------------|-------------------------|
D|-------------------------|-------------------------|
A|---3-5-6-6-5-3-------3-5-|---3-5-6-6-5-3-------3-5-|
E|-3-------------3-4-5-----|-3-------------3-4-5-----|
g|-------------------------|-------------------------|
D|-------------------------|-------------------------|
A|---3-5-6-6-5-3-------3-5-|---3-5-6-6-5-3-----------|
E|-3-------------3-4-5-----|-3-------------3-4-5-----|
RIFF I: RIFF EXTENSION:
P.M...........
e|----------------------| e|-----------|
b|----------------------| b|---------3-|
g|----------------------| g|-------3-3-|
D|-3--3-3--3-3--3-3-1-4-| D|-4-h-5-----|
A|-3--3-3--3-3--3-3-1-4-| A|-----------|
E|----------------------| E|-----------|
REPEAT INTRO:
VERSE II:
g|-------------------------|-------------------------|
D|-------------------------|-------------------------|
A|---3-5-6-6-5-3-------3-5-|---3-5-6-6-5-3-------3-5-|
E|-3-------------3-4-5-----|-3-------------3-4-5-----|
g|-------------------------|-------------------------|
D|---------------5-6-7-----|-------------------------|
A|---3-5-6-5-6-3-------3-5-|---3-5-6-6-5-3-----------|
E|-3-----------------------|-3-------------3-4-5-----|
REPEAT RIFF I:
RIFF II:
P.M.....................
e|--------------------------|
b|--------------------------|
g|---0--0--0--0--0--0--0--0-|
D|--------------------------|
A|--5--5--5--5--5--5--5--5--|
E|-3--4--5--4--3--4--5--4---|
CHORUS RIFF
e|-----------------------------------------------|
b|--------------------------3-6-p3---4-p3--------|
g|------------------------3--------3------3-5-p3-|
D|-----------/8-----8---3------------------------|
A|-5-----5---/6-6-6-6-6--------------------------|
E|-3-3-3-3-3-------------------------------------|
GUITAR SOLO:
e|---------------------------------|-----------------------|
b|---------------------------15-13-|-----------------------|
g|-/3---3--/7---/10---/14----------|------3-h5-5b-(scream)-|
D|----5-------8-----12----15-------|-3-h5------------------|
A|---------------------------------|-----------------------|
E|---------------------------------|-----------------------|
e|-3--3--3---------------------------------------------|
b|-6b-6b-6b-6-3-6-3------------------------------------|
g|------------------5-5b-3-h5-p3-5-3-2------3-3-h5-3-2-|
D|-------------------------------------3-h5------------|
A|-----------------------------------------------------|
E|-----------------------------------------------------|
e|---------------------------------------------------|
b|---------------------------------------------------|
g|-----------------------------------3-/5-5-5-5-/3-3-|
D|-5-3-/5-5-5-5-/3-3---------------------------------|
A|-------------------3-/5-5-5-5-/3-3-----------------|
E|---------------------------------------------------|
e|--------------------3-6-p3-6-8b-8-8-|
b|-3-/6-6-6-6-/3-3-h6------------------|
g|-------------------------------------|
D|-------------------------------------|
A|-------------------------------------|
E|-------------------------------------|
e|-6-h8-h10-p8-p6-h8-h10-t13-10-p8-h10-t13-|
b|-----------------------------------------|
g|-----------------------------------------|
D|-----------------------------------------|
A|-----------------------------------------|
E|-----------------------------------------|
e|-10-p8-h10-t18-15-h13-h15-t18-15-p13-h15-|
b|-----------------------------------------|
g|-----------------------------------------|
D|-----------------------------------------|
A|-----------------------------------------|
E|-----------------------------------------|
e|-t18-15-p13-h15-t18-15-p13-h15-t18b-|
b|------------------------------------|
g|------------------------------------|
D|------------------------------------|
A|------------------------------------|
E|------------------------------------|
REPEAT RIFF II:
REPEAT CHORUS RIFF:
RIFF III:
e|---------------1---------------|
b|--------------4-4----1-----2---|
g|---0-2b-2-0--3---3--0-0---2-2--|
D|------------1------2---2-2---2-|
A|--5---------------3-----0------|
E|-3-----------------------------|
REPEAT RIFF II:
ENDING:
P.M.........
e|-----------------|
b|-----------------|
g|---0--0--0--0----|
D|-----------------|
A|--5--5--5--5---5-|
E|-3--4--5--4----3-|
msg:pls. excuse me i want to post it para pangdagdag sa collection
nang wolfgang tabs d2 sa UG-leander




Ваше мнение



Капча