SONG:REVOLUTION NOW
ARTIST:WOLFGANG
TAB BY:LEANDER M.

INTRO:
Db|--------------------------|
Ab|--2-2-2-2-2-2-2-2--2-4-6--|
Eb|--------------------------|
. . . . . . . .

STANZA
Db|---------------------------|
Ab|--2-2-2-2-2-2-2-2-6p4-4-6--|
Eb|---------------------------|

CHORUS
Db|------------||--------5---57--||-------------------|
Ab|--5-57--7--||------3---3-35--||--------5---5p3----|
Eb|--3-35--5--||--13------------||--13-3---3-----5--|

THE REVOLUTION NOW...
Db|----------7-5-7~~~--|
Ab|------7-------------|
Eb|--3-5---5-----------|

TAB BY:LEANDER V. M.
STILL WORKING ON THE OTHER PART OF THE SONG...IHOPE THIS IS RIGHT
C0R@ T!R@




Ваше мнение



Капча