meckam
wolfgang
tab by:leander m.

intro
Eb|-------------------------------------|
Bb|-------------------------------------|
Gb|-------------------------------------|
Db|-------------------------------------|
Ab|--2-3---3-6-2-2-3---3-6-2-2-3---3-6--|
Eb|--0-1-0-1-4-0-0-1-0-1-4-0-0-1-0-1-4--|

stanza
Eb|--------------------------------------------------|
Bb|--------------------------------------------------|
Gb|------------------|-------------|-----------------|
Db|----------0-2-3/--|-------------|--2^4(vb)(ah)----|
Ab|--2-2-3-----------|--2-3---3-6--|-----------------|
Eb|--0-0-1-0---------|--0-1-0-1-4--|-----------------|

refrain
Eb|------------------------|
Bb|------------------------|
Gb|------------------------|
Db|---------5-------5-4----|
Ab|--7-5-2--3-7-5-2-3-2----|
Eb|--5-3-0----5-3-0--------|
(repeat refrain)
Eb|------------------------|
Bb|------------------------|
Gb|------------------------|
Db|------------------------|
Ab|--2-3-2-6--2-3-2-7-6----|
Eb|--0-1-0-4--0-1-0-5-4----|
end




Ваше мнение



Капча