SONG:MATA NG DIOS
ALBUM:SEMENELIN
ARTIST:WOLFGANG
TAB BY:LEANDER M. and KC

LEGEND:(maybe this will help you on the other tabs)
or ( )- natural os artificial harmonics
. - palm mute
^ or B - bent
/ - slide up
- slide down
v or vb - vibrato
r - Rrelease bend
p - pull off
h - hammer on
t - right hand tap
x - muted strick string

intro:(8x)
Eb|-----------------------------------------------------------------|
Bb|-----------------------------------------------------------------|
Gb|--------------------------------------------------------|
Db|--------------------------------------------------------|
Ab|-----------------------------------------------|
Eb|--------------------------------------------------------|

interlude:
Eb|-------------------------------------| |--------1-------|
Bb|-------------------------------------| |------1---------|
Gb|-------------------------------------|(4x) then |----2-----------|
Db|--3---------3---------3--------------| |--3-------------|
Ab|--3---------3---------3--------0-2-0-| |--3-------------|
Eb|--1--0-0-0--1--0-0-0--1--0-0-0-------| |--1-------------|
. . . . . . . . .
repeat intro
repear interlude,then...
RIFF I(do this until refrain)
Eb|----------------------------------------------------|
Bb|----------------------------------------------------|
Gb|----------------------------------------------------|
Db|------5-----5-----5-----5------5-----5-----5-----5--|
Ab|----5-----5-----5-----5------5-----5-----5-----5----|
Eb|--2-----3-----4-----5------2-----3-----4-----5------|
. . . . . . . . . . . . . . . . . . . . . . . .
refrain:
Gm Eb Bb C
At hindi ko maalala kung saan galing ito
Gm Eb Bb C
mga bahid ng dugong dumikit sa aking bga kuko
Gm Eb Eb C
tumakbo, lumayo sa lugar na to lalamunan ko'y tuyong tuyo
Gm Eb Bb C
tumakbo, lumayo sa titig mo...sa mata ng dios...

solo(work by katrine(KC))
Eb|-----------6-------10---------13-10----------------------------|
Bb|--------3--------7---------10-------13-------------------------|
Gb|--1/3-3------3/7------7/10-------------------------14B(ah)~~~--|
Db|---------------------------------------------------------------|
Ab|---------------------------------------------12-14-------------|
Eb|---------------------------------------12-14-------------------|
. . . .
Eb|---------------------------------------------------------------------------|
Bb|--11^13-11^13-11^13-----11------------------------------------------------|
Gb|--10^12-10^12-10^12--10----10-10^12--10-7-8-8-8-7-5-7-5-3-3-5-5-5-5-3-----|
Db|-----------------------------------------------------------------------5-5-|
Ab|---------------------------------------------------------------------------|
Eb|---------------------------------------------------------------------------|

Eb|---------------------------------------------------------------------------|
Bb|--------------------------------------------------------26-6-6-6-6-6-2-2--|
Gb|--------------------------------------35-5-5-5-5-5-3-3--------------------|
Db|--35-5-5-5-5-5-3-3--------------------------------------------------------|
Ab|--------------------35-5-5-5-5-5-3-3--------------------------------------|
Eb|---------------------------------------------------------------------------|

Eb|------6-6---6-8^10v-10-----------------------------------12h15------------|
Bb|--6h8-----8--------------------12h15p12-------------12h15-------12h15------|
Gb|-------------------------12h15----------12h15-12h15------------------------|
Db|---------------------------------------------------------------------------|
Ab|---------------------------------------------------------------------------|
Eb|---------------------------------------------------------------------------|
(do this fast)
Eb|--------12h15p12-------12h15p12-------12h15p12-----------------------------|
Bb|--12h15----------12h15----------12h15----------12h15-----------------------|
Gb|---------------------------------------------------------------------------|
Db|---------------------------------------------------------------------------|
Ab|---------------------------------------------------------------------------|
Eb|---------------------------------------------------------------------------|

Eb|--------15h18p15-------15h18p15-------15h18p15-----------------------------|
Bb|--15h18----------15h18----------15h18----------15h18-----------------------|
Gb|---------------------------------------------------------------------------|
Db|---------------------------------------------------------------------------|
Ab|---------------------------------------------------------------------------|
Eb|---------------------------------------------------------------------------|

Eb|--------15h18p15-15h18-19^21v-19^21v--21--|
Bb|--15h18-----------------------18^20v--20--|
Gb|-------------------------------------------|
Db|-------------------------------------------|
Ab|-------------------------------------------|
Eb|-------------------------------------------|

repeat RIFF I
repeat refrain
repeat RIFF I
...END...
cor@_t!r@
Tab by: [email protected]
thnx 4 d suport KC




Ваше мнение



Капча