-------------------------------------------------------------------------------
HEAVEN SPENT - WOLFGANG
-------------------------------------------------------------------------------
Tabbed by:Richard Amores
Email:[email protected]
Tuning:half-step down
This is the simplest way to play this song...
....comments appreciated...
Intro/verse
eb|-----------------------------------------|
Bb|---3---3----4---4----3---3------3-----1--|
Gb|-----0--------0--------0------0-----0----|
Db|-----------------------------------------|
Ab|----------6-----------------2-----3------|
Eb|-3-----------------3---------------------|
Bridge
eb|------------|
Bb|-3/6-6-63--|
Gb|------------|
Db|------------|
Ab|------------|
Eb|-3/6----3--|
Riff after 2nd verse then play this....
eb|---------------------|------------------------|
Bb|---------------------|------------------------|
Gb|-7-7-7/8-8-8-87-7-7-|------------------------|
Db|-7-7-7/8-8-8-87-7-7-|-5/8-8-8-8--5-5---5-----|
Ab|-5-5-5/6-6-6-65-5-5-|-5/8-8-8-8--5-5---5-----|
Eb|---------------------|-3/6-6-6-6--3-3-0-3-----|
x x x
Chorus...
eb|--------------------------------------------------------------------|
Bb|--------------------------------------------------------------------|
Gb|-7----------3---------------------7-----------3----------5----------|
Db|-7----------3---------3-----------7-----------3----------5----------|
Ab|-5----------1---------3-----------5-----------1----------3----------|
Eb|----------------------1---------------------------------------------|
after the 2nd chorus play this 4x
eb|-------------------------|
Bb|-------------------------|
Gb|-7-7/12-11-14-5-5--------|
Db|-7-7/12-11-14-5-5--------|
Ab|-5-5/10-9--12-3-3--------|
Eb|-------------------------|
play this thru out...
eb|------------------------------------|
Bb|------------------------------------|
Gb|-5/7-7-7-7/8-8-8-87-7-7-75-5-5----|
Db|-5/7-7-7-7/8-8-8-87-7-7-75-5-5----|
Ab|-3/5-5-5-5/6-6-6-65-5-5-53-3-3----|
Eb|------------------------------------|
that's it..now all you need is to find a vocalist who sounds like basti...hehe... =)
| / slide up
| slide down
| h hammer-on
| p pull-off
| ~ vibrato
| + harmonic
| x Mute note
===========================================================================




Ваше мнение



Капча