ARTIST:WOLFGANG
SONG:HALIK NI HUDAS
ARTIST:SEBASTIAN ARTADI,MANUEL LEGARDA
WOLF GEMORA,MON LEGASPI
TAB BY:LEANDER MARVIN V. MACUTAY
TUNED:Eb

INTROSTANZA
Eb|----------------------------------------|
Bb|----------------------------------------|
Gb|----------------------------------------|
Db|-------------9------------------7-------|
Ab|--5SL7-------7-------7-----5-7---7-5---|
Eb|--3SL5--5-5-----0-0--5--7--------------|
. .

REFRAIN:
Eb|------------------------------------------------------|
Bb|------------------------------------------------------|
Gb|------------------------------------------------------|
Db|------------------------------------------------------|
Ab|--0-4-------4-------4--3P2---3P2-0--0-4------4-----4--|
Eb|--0-2--2-2--2--2-2--2------0--------0-2--2-2-2-2-2-2--|
. . . . . . . . .

CHORUS:
Eb|-------------------------||---------------------------|
Bb|-------------------------||---------------------------|
Gb|--9-------9-------9---9--||-9P7-5--5-8P7-5------------|
Db|--9-------9-------9---9--||----------------8-7-5------|
Ab|--7-------7-------7---7--||-----------------------7---|
Eb|----0-0-0---0-0-0---0----||---------------------------|
. . . . . . .

|CONTINUE OF CHORUS| |AFTER ADLIB|
Eb|---------------------------||--------------------------|
Bb|---------------------------||--------------------------|
Gb|---------------------------||--------------------------|
Db|--3SL5--5SL6---------------||--------------------------|
Ab|--1SL3--3SL4--3SL5-5SL3--3-||----7-5---5-3---4-2---0-2-|
Eb|--------------1SL3-3SL1--1-||--5-----3-----2-----0-----|

TO BE CONTINUE......

--IM STILL WORKING ON THE ADLIB AND OTHER PART OF THE SONG,
PLEASE BE PATIENT.I APOLOGIZE IF MY REFRAIN ARE WRONG THIS SONG
IS FAST & TRICKY.-LEANDER V. M.

Co!Ra T!RA
ARIES GORILLA
VINCENT BIG NOSE
THNX U FRENDZ!!




Ваше мнение



Капча