song:change
artist:wolfgang
album:semenelin
tab by:KC weng-weng
tune 12 fret lower

intro & stanza:
Eb|------3-2-----------------------3-2------------------|
Bb|--3-0-0---0-0-0-1-1-1-3-3--3--0-0---0-0-0-1-1-1-3-3--|
Gb|--0-0-0---0-0-0-2-2-2-4-4--0--0-0---0-0-0-2-2-2-4-4--|
Db|--0-------0-0-0-0-0-0-0-0--0--------0-0-0-0-0-0-0-0--|
Ab|--2------------------------2-------------------------|
Eb|--3------------------------3-------------------------|

Eb|------3-2----------------------3-2-------------------|
Bb|--3-0-0---0-0-0-1-1-1-3-3--3-0-0---0-0-0-1-1-1-3-3---|
Gb|--0-0-0---0-0-0-2-2-2-4-4--0-0-0---0-0-0-2-2-2-4-4---|
Db|--0-------0-0-0-0-0-0-0-0--0-------0-0-0-0-0-0-0-0---|
Ab|--2------------------------2-------------------------|
Eb|--3------------------------3-------------------------|
Chorus:
Eb|--5--5--5--5--5--5--5--3-3-3-3-----------------------|
Bb|--6--6--6--6--6--6--6--5-5-5-5-----------------------|
Gb|--5--5--5--5--5--5--5--5-5-5-5-----------------------|
Db|--3-----3--3-----3--3--5-5-5-5-----------------------|
Ab|-----------------------3-3-3-3-----------------------|
Eb|-----------------------------------------------------|

Eb|------3-2----------------4---------------------------|
Bb|--3-0-0---0-0-0-1-1-1-3--6---------------------------|
Gb|--0-0-0---0-0-0-2-2-2-4--5---------------------------|
Db|--0-------0-0-0-0-0-0----3---------------------------|
Ab|--2--------------------------------------------------|
Eb|--3--------------------------------------------------|

Eb|--3-3-3-3--1-1-1------3-2----------------------------|
Bb|--5-5-5-5--3-3-3--3-0-0---0-0-0-1-1-3-3--------------|
Gb|--5-5-5-5--3-3-3--0-0-0---0-0-0-2-2-4-4--------------|
Db|--5-5-5-5--3-3-3--0-------0-0-0-0-0-0-0--------------|
Ab|--3-3-3-3--1-1-1--2----------------------------------|
Eb|------------------3----------------------------------|
Interlude:
Eb|--2------1-0-3-7-------------------------------------|
Bb|--0--------------0-0-1-0---3-0---3-0---0-------------|
Gb|--0------------------0-----0-----2---------------|
Db|--0----------------------------------------------|
Ab|--2--------------------------------------------------|
Eb|--3--------------------------------------------------|

Eb|---------------------1-1-1-0-0-0-0-0--------------------------|
Bb|-----------------0-0-3-3-3-3-3-3-3-3-----------------0-0------|
Gb|--4-4-4--5-5-5-5-0-0-3-3-3-3-3-3-3-3--3-3-3-5-5-5-5--0-0------|
Db|--3-3-3--3-3-3-3-0-0-3-3-3-3-3-3-3-3--4-4-5-3-3-3-3--0-0------|
Ab|--5-5-5--3-3-3-3----------------------5-5-5-3-3-3-3-----------|
Eb|--3-3-3-------------------------------3-3-3-------------------|

Eb|-----------5-3-1------3-2-------------------------------------|
Bb|-----------6-5-3--3-0-0---0-0-0-1-1-1-3-3---------------------|
Gb|-----3--5--5-5-3--0-0-0---0-0-0-2-2-2-4-4---------------------|
Db|--5--3--5--3-5-3--0-------0-0-0-0-0-0-0-0---------------------|
Ab|--3--1--3----3-1--2-------------------------------------------|
Eb|--3---------------3-------------------------------------------|
Ending riff...
Eb|-----------------------|
Bb|---------------0-0-----|
Gb|--4-4-4-5-5-5--0-0--4--|
Db|--5-5-5-3-3-3--0-0--5--|
Ab|--3-3-3-3-3-3-------5--|
Eb|--3-3-3-------------3--|

tabbed by:| / _ _ _ E n d
| / |
|/ |
| |
| |
| |
| |_ _ _




Ваше мнение



Капча