song:center of the sun(acoustic)
artist:wolfgang
album:acoustica
tab by: [email protected]

INTROSTANZA
Eb|------2------------------|
Bb|----2---2----------------|
Gb|--0-------0---0---0------|
Db|--0---------3---2--------|
Ab|--2-----------------0/2--|
Eb|--3-----------------0/3--|

refrain G C
Eb|-----------------------|--2--|--3--|
Bb|-----------------------|--2--|--5--|
Gb|--------7---9---9---9--|--0--|--5--|
Db|------9---9---9---9----|--0--|--5--|
Ab|----7------------------|--2--|--3--|
Eb|--7--------------------|--3--|--0--|

CHORUS-G-F-C
Eb|--2--1--0--|
Bb|--2--1--1--|
Gb|--0--2--0--|
Db|--0--3--2--|
Ab|--2--3--3--|
Eb|--3--1--0--|

riff after solo
Eb|-----------------------------------------------------|
Bb|-----------------------------------------------------|
Gb|-----------------------------------------------------|
Db|--9/12-x-12-x-x-11-x-7-x-7/9--9/12-x-12-x-x-11-x-14--|
Ab|--7/10-x-10-x-x-9--x-5-x-5/7--7/10-x-10-x-x-9--x-12--|
Eb|-----------------------------------------------------|

SOLO
Eb|------------------------------------------------------|
Bb|----------------------------8-8---8-10^12-10^12-8/10--|
Gb|------5-5---5-7^9-7^9---7/9-----9---------------------|
Db|--5/7-----7-----------7-------------------------------|
Ab|------------------------------------------------------|
Eb|------------------------------------------------------|

Eb|----10^12-10^12-10^12-10^12-10^12-10^12-8-10-8----8-------|
Bb|--8--------------------------------------------10---10-8--|
Gb|----------------------------------------------------------|
Db|----------------------------------------------------------|
Ab|----------------------------------------------------------|
Eb|----------------------------------------------------------|

Eb|----------------------------------------------------------|
Bb|-------------------------------------10-------------------|
Gb|--10-8-9-10-------------------7-9^11----5-7-5---7^9-5---5-|
Db|------------10-8-10-8h10----------------------7-------7---|
Ab|-------------------------10-8-----------------------------|
Eb|----------------------------------------------------------|

Eb|----------------------------------------------------------|
Bb|----------------------------------------------------------|
Gb|------5^7-----------------5^7-5^7-5^7-5^7p3---------------|
Db|--1/3-----5---3-5-3---3-5---------------------------------|
Ab|------------5-------5-------------------------------------|
Eb|----------------------------------------------------------|
the end
tab by:leander m. coR@_t!r@




Ваше мнение



Капча