song:bought & sold(acoustic)
artist:wolfgang
tab by: leander m.
INTRO/STANZA (do this process on chorus after bridge)
Eb|----------------------||----9-9-9--|
Bb|----------------------||--7--------|
Gb|-----7------7------7--||--7--------|
Db|--9--7-------------7--||--7--------|
Ab|--9--9--7/9---7/9--9--||--7--------|
Eb|--7-------------------||-----------|
STRUM THIS SAME AS IN THE MUSIC
REFRAIN:B-A-
Eb|--------|
Bb|--------|
Gb|--------|
Db|--9--7--|
Ab|--9--7--|
Eb|--7--5--|

B A B
Batered bodies, shattered dreams, lining the streets,
A B A
no end to the means crippled corpses, violated soul,
B A G-A-E(2x)
degraded, penetrated, beaten down sold her.
Eb|-----------|
Bb|-----------|
Gb|-----------|
Db|--5--7--2--|
Ab|--5--7--2--|
Eb|--3--5--0--|
adlib:
Eb|------------------------------------------------|
Bb|---------------------7---7---8---7--------------|
GB|--------8---9------7---7---7---7----------------|
Db|--9-9-----9---9----7---------------7-7h8p7------|
Ab|--9---9---------9--5-----------------------5----|
Eb|--7------------------------------------------7--|
Eb|------0-----0----------------------------------9--------------|
Bb|----0-----0---0------78-810-8-7----------7------------------|
Gb|--8-----8-------8--9--------------7----7-8---9----9-9-9-9p7---|
Db|--9-----9----------9----------------9-----------------------9-|
Ab|--9-----9----------7------------------------------------------|
Eb|--------------------------------------------------------------|
Eb|--------------------------------------------------------------|
Bb|-----------------------------------7-78p7-57-----5----------|
Gb|----9-9-9-9---------------9--------7-78p7-----7p5------------|
Db|--9---9-9-9-7h9p7---9---9---9------7--------------------------|
Ab|------7-7-7-------7---9-------9--5----------------------------|
Eb|----------------------0---------------------------------------|
Eb|--------------------------------------------------------------|
Bb|---------------------7-8-8-7h8---------------7----------------|
Gb|------------6--------7-7-7-7---4-----7-------7-7p6------------|
Db|--9p7---7-----7----7-7-7-7-7-----7-7---7-----7----------------|
Ab|------9---9-----9--5---------------------9-5------------------|
Eb|--------------------------------------------------------------|
repeat this part in bridge(oh my brother how do you explain)
Eb|--------------------------------------------------------------|
Bb|--------------------------------------------------------------|
Gb|-----------------------------7-6---7-6-69-911-11------------|
Db|----9-7---9-7---9-7---9-7--7-----7----------------------------|
Ab|--9-----9-----9-----9-----------------------------------------|
Eb|--------------------------------------------------------------|
Eb|--------------------------------------------------------------|
Bb|-------------------------------------7-8p7p5------------------|
Gb|----9-7--9-7---9-7---9-7-----7-6-67---------7----------------|
Db|--9----9-----9-----9-------7----------------------------------|
Ab|--------------------------------------------------------------|
Eb|--------------------------------------------------------------|
riff lest part
Eb|-------------------------|
Bb|-------------------------|
Gb|-------------------------|
Db|-------------------------|
Ab|--7-7--7-7-7-7-7-7--8-8--|
Eb|--5-5--5-5-5-5-5-5--6-6--|
...THE END...
COR@_T!RA




Ваше мнение



Капча