song:bought & sold
album:semenelin
artist:wolfgang
tab by:[email protected]

intro/stanza:
Eb|------------------------------------------------------|
Bb|------------------------------------------------------|
Gb|------------------------------------------------------|
Db|------------------------------------------------------|
Ab|--------9-9-9-8-8-8-9-9-912-12-12-9-9-9-8-8-8-9-9-9--|
Eb|--7-7-7-----------------------------------------------|

Eb|------------------------------------------------------|
Bb|------------------------------------------------------|
Gb|------------------------------------------------------|
Db|------------------------------------------------------|
Ab|--------9-9-9-8-8-8-9-9-9-----------------------------|
Eb|--7-7-7-------------------10-10-10-12-12-8-8-8-8-8-8--|

refrain:
Eb|------------------------------------------------------|
Bb|------------------------------------------------------|
Gb|------------------------------------------------------|
Db|------9--------2--------9-----------------------------|
Ab|----9---9---5----3----9---9---------------------------|
Eb|--7-------3---------7---------------------------------|

Eb|------------------------------------------------------|
Bb|------------------------------------------------------|
Gb|------------------------------------------------------|
Db|---------------2-----------9-------3-------9----------|
Ab|--------3-5-6----5-3-2---9---9---5---5---9---9--------|
Eb|--3-4-6----------------7-------3-------7--------------|

Eb|------------------------------------------------------|
Bb|------------------------------------------------------|
Gb|------------------------------------------------------|
Db|--------------------2---------------------------------|
Ab|------2-5-4-2-2-4-5---5-2-----------------------------|
Eb|--3-5-------------------------------------------------|

bought & sold...
Eb|------------------------------------------------------|
Bb|------------------------------------------------------|
Gb|------------------------------------------------------|
Db|------------------------------------------------------|
Ab|--5-5-----7-7-2-2-2-2-2-2-2--||--2-2-2----------------|
Eb|--3-3-0-0-5-5-0-0-0-0-0-0-0--||--0-0-0----------------|
. . . . . . . . . . .
bridge(oh my brother)
Eb|------------------5-----------------------------------|
Bb|----------------8---8-8h7-----------------------------|
Gb|------8---9-8-7-----------7-8-------------------------|
Db|----9---9-----7-------------9-------------------------|
Ab|--9-----------5-------------9-------------------------|
Eb|--7-------------------------7-------------------------|

Eb|------------------------------------------------------
Bb|------------------------------------------------------
Gb|------------------------------------------------------
Db|------------------------------------------------------
Ab|----------------------7---------------------6---------
Eb|--5-6-8--8-6-5--5-6-8---5-6-8--8-6-5--5-6-8-----------

--------------------------------------------------------|
--------------------------------------------------------|
--------------------------------------------------------|
-----------------------------------------2-4-5-5-5-7----|
---------------5-------------------2-3-5-------------6--|
--5-6-8--8-6-5---8-7--9-7-5--2-3-5----------------------|

Eb|--------------------------------------------------------|
Bb|--------------------------------------------------------|
Gb|--------------4-----------------------------------------|
Db|--------4-6-7---7-5----------------------2-4-5-5-5-7----|
Ab|--4-5-7-------------7-5-4----------2-3-5-------------6--|
Eb|--------------------------5--2-3-5----------------------|

Eb|----------------------------------------------------------|
Bb|----------------------------------------------------------|
Gb|--------------4-------------------------------------------|
Db|--------4-6-7---7-5----------------------2-4-5--5-5--7----|
Ab|--4-5-7-------------7-5-4----------2-3-5---------------6--|
Eb|--------------------------5--2-3-5------------------------|

Eb|----------------------------------------------------------|
Bb|----------------------------------------------------------|
Gb|----------------------------------------------------------|
Db|-----------------7-------7--------------------------------|
Ab|--6-679--679---679----------------------------------|
Eb|---------------------------7^9-9-7-5-7--------------------|

Eb|----------------------------------------------------------|
Bb|----------------------------------------------------------|
Gb|----------------------------------------------------------|
Db|--------------7-------7-79~~~----------------------------|
Ab|--679-679---679-------------------------------------|
Eb|----------------------------------------------------------|

info:hey!! I want the solo of this song if anyone knows can you please post
it here....
THE_end
tab by:leander m.




Ваше мнение



Капча