song:as ocean
album:wolfgang
artist:wolfgang
tab by:leander m.
Info:any comment,suggetion,death threat,sex mate,bomb threat E-mail
at [email protected] or text/call 09193216020....
tune 1/2 step lower

intro:
Eb|-------35- ------------3/5-- --|
Bb|-------57- ------------5/7-- --|
Gb|--611-57-(3x)--11/611---5/7-- --|
Db|--711-57- --11/711---5/7--(3x)--|
Ab|--79--35- ---9/79----3/5-- --|
Eb|--59--0- ---9/59----0/0-- --|

refrain:
Eb|-------------------|
Bb|-------------------|
Gb|-------------------|
Db|--5-3-5-3-5-3-5-3--|
Ab|--5-3-5-3-5-3-5-3--|
Eb|--3-1-3-1-3-1-3-1--|

riff I(stanza)
Eb|--------------------------------|
Bb|--------------------------------|
Gb|--------------------------------|
Db|--5/7-----7------5-----3-----2--|
Ab|--3/5-5-5-5--5-5---3-3---3-3----|
Eb|--0/0-0-0-0--0-0---0-0----------|
. . . . . . . .
interlude:
Eb|--12-12-12-12--x-x-x-x-x-x-x-12-12-12-12-15-15-15-15-10--|
Bb|--14-14-14-14--x-x-x-x-x-x-x-14-14-14-14-17-17-17-17-12--|
Gb|--14-14-14-14--x-x-x-x-x-x-x-14-14-14-14-17-17-17-17-12--|
Db|--14-14-14-14--x-x-x-x-x-x-x-14-14-14-14-17-17-17-17-12--|
Ab|--12-12-12-12--x-x-x-x-x-x-x-12-12-12-12-15-15-15-15-10--|
Eb|---0--0--0--0--x-x-x-x-x-x-x--0--0--0--0--0--0--0--0--0--|

riff before solo:
Eb|-----------------------------------------------------------|
Bb|------------------8-8p7-7p5-------------------4h7-7p6p4----|
Gb|----9-----11----14----------7----9-----11---9-----------7--|
Db|----9-----11----14---------------9-----11---9--------------|
Ab|--7---9-9----12----------------7---9-9----7----------------|
Eb|-----------------------------------------------------------|
. . . . . . .
solo:
Eb|--------------14b-14b-14b^14------------------------------------------------|
Bb|--13b-13b-13b---------------------------------------------------------------|
Gb|-----------------------------12-12b^12-10h12-10h12p10----10-10h12p10--------|
Db|------------------------------------------------------12---------------|
Ab|----------------------------------------------------------------------------|
Eb|----------------------------------------------------------------------------|

Eb|-----------------------------------------------------|
Bb|-------------------------------------------13/15-15--|
Gb|-----10--------------------10/12-12/14-----------|
Db|--12----12------12-12-12p10-12-----------------------|
Ab|-----------------------------------------------------|
Eb|-----------------------------------------------------|

Eb|--12h15p12-12h15p12-12h15p12-12h15p12-12h15p12-17-12h15p12-17-12h15p12-17--|
Bb|---------------------------------------------------------------------------|
Gb|---------------------------------------------------------------------------|
Db|---------------------------------------------------------------------------|
Ab|---------------------------------------------------------------------------|
Eb|---------------------------------------------------------------------------|

Eb|--12h15p12-----------------------
Bb|-----------15p14p12--------------
Gb|--------------------15p12-14-----
Db|-----------------------------12--
Ab|---------------------------------
Eb|---------------------------------

Eb|------------------------------------------------------------------|
Bb|------------------------------------------------------------------|
Gb|-----------------------------------------------12h14h15-12h14h15--|
Db|-----------------------------12h14h15-12h14h15--------------------|
Ab|-----------12h14h15-12h14h15--------------------------------------|
Eb|--12h14h15--------------------------------------------------------|

Eb|--------------------12h14h15-12h15p14p12--
Bb|--12h14h15-12h14h15-----------------------
Gb|------------------------------------------
Db|------------------------------------------
Ab|------------------------------------------
Eb|------------------------------------------

Eb|---------------------------------------------|
Bb|--15p14p12-----------------------------------|
Gb|-----------15p14p12--------------------------|
Db|--------------------15p14p12-----------------|
Ab|-----------------------------15p14p12--------|
Eb|--------------------------------------15p12--|

repeat stanza
repeat refrain
as the ocean....(final riff)
Eb|----------------------||-----------|
Bb|----------------------||-----------|
Gb|----------------------||-----------|
Db|--5-7-5-4--5-7-5-4-5--||--7-5-7-5--|
Ab|--5-5-3-2--5-5-3-2-3--||--5-3-5-3--|
Eb|--3-0-0-0--3-0-0-0-0--||--0-0-0-0--|
the_end
submitted by:[email protected]




Ваше мнение



Капча