song:Arise
album:wolfgang
artist:wolfgang
tab by:leander m.
tune: 1/2 step down Eb Bb Gb Db Ab Eb
intro:
Eb|--------------------------------------------------------------------
Bb|--------------------------------------------------------------------
Gb|--------------------------------------------------------------------
Db|--------------------------------------------------------------------
Ab|--------------------------------------------------------------------
Eb|--0-0-0-0-3-3-3-3-5-5-5-5-6-6-6-6--0-0-0-0-3-3-3-3-5-5-5-5-3-3-3-3--
-----------------------------------------------------------------------|
-----------------------------------------------------------------------|
-----------------------------------------------------------------------|
-----------------------------------------------------------------------|
-----------------------------------------------------------------------|
-----0-0-0-0-3-3-3-3-5-5-5-5-6-6-6-6--7-3-0----------------------------|
stanza:
Eb|------------------------------ ----------------|
Bb|------------------------------ ------7---5-----|
Gb|------------------------------(3x)----7-------5/--|
Db|------------------------------ --7-----5-------|
Ab|--5/7--7-7--7--5-7-7-7-7--7-- --5-----3-------|
Eb|------------------------------ ----------------|
. . . . . .
refrain:
Eb|---------------||--7-7----------------------------||------------------|
Bb|------7---5----||--9-9-------------7---5----------||------------------|
Gb|----7-------5-||--9-9-5h7p7-----7-------5/-------||------------------|
Db|--7-----5------||--9---------7-7-----5------------||-------10---5-----|
Ab|--5-----3------||--7-----------5-----3------------||-----8----6---6--|
Eb|---------------||--0------------------------------||--/8--------------|
Bridge:(I am the king, I need no queen
Eb|-------7-------------9-------------10---------------------------------|
Bb|-----8---8--10----10---10----11-------11-----13-------13--------------|
Gb|---------------12---------------12--------------12-------12-----------|
Db|--9------------------------12-------------11-------11-------11/9------|
Ab|----------------------------------------------------------------------|
Eb|----------------------------------------------------------------------|
Eb|-----------------------------------------------||--7-5----------------|
Bb|-----------------------------------------------||--9-7----------------|
Gb|-----------------------------------------------||--9-7----------------|
Db|-----------------------------------------------||--9-7----------------|
Ab|--7--0-0-0-0--9--0-0-0-0--12--0-0-0-0--11-7-5--||---------------------|
Eb|-----------------------------------------------||---------------------|
solo:
Eb|----------------------------------------------------------------------|
Bb|--------------------------17-17p16-14-12-15p14p12---------------------|
Gb|--14b-14b-14b-14b~-14b-14-------------------------15p12---------------|
Db|----------------------------------------------------------------------|
Ab|----------------------------------------------------------------------|
Eb|----------------------------------------------------------------------|
|--15b-15-15-14-12--15-12----15b-15b-15b-12------------------------------------|
|-------------------------15----------------15-14-12----12-14b-14p12----12-12-|
|----------------------------------------------------14--------------14--------|
|------------------------------------------------------------------------------|
|------------------------------------------------------------------------------|
|------------------------------------------------------------------------------|
Eb|---------------------------------------------------------------|
Bb|-------10-10-------12-12-----------13-13------------15-15------|
Gb|--7-7-------7/-9-------9/-10-10-------10/-12-12-------12/--|
Db|---------------------------------------------------------------|
Ab|---------------------------------------------------------------|
Eb|---------------------------------------------------------------|
ah
Eb|------------------------------|
Bb|-----16----17----18----~--|
Gb|--13----14----15----16--------|
Db|------------------------------|
Ab|------------------------------|
Eb|------------------------------|
Eb|--------------------------------------------------------------|
Bb|--19p18-18-16----16-------------------------------------------|
Gb|--------------18----18-19p18p16-18-16-----16-16b-18p16----16-|
Db|--------------------------------------18---------------18-----|
Ab|--------------------------------------------------------------|
Eb|--------------------------------------------------------------|
Eb|---------------------------------------|
Bb|---------------------------------------|
Gb|--7h9h11p9p7h9p7-----------------------|
Db|-----------------10p9-7-9-7------------|
Ab|----------------------------10-9-7---7-|
Eb|-----------------------------------9---|
Eb|------------------------------------------------|
Bb|--10-8-7-10-8-7-10p8p7----7--10-9-7-9-9/--|
Gb|-----------------------10-----------------------|
Db|------------------------------------------------|
Ab|------------------------------------------------|
Eb|------------------------------------------------|
|-----------------------12h14h15p14p12-----------------------------------------|
|-12h14h15-12h14h15(3x)----------------15p14p12--------------------------------|
|-----------------------------------------------15p14p12-----------------------|
|---------------------------------------------------------15p14p12-------------|
|------------------------------------------------------------------15p14p12----|
|---------------------------------------------------------------------------14-|
repeat Intro
repeat stanza
repeat refrain
info:thnx to the guy that emailed me
tabbed by:leander m.
end
Kc_Cut3




Ваше мнение



Капча