FREIBAD.TAB
This TAB transcription was created using TAB MASTER version 1.0
If you enjoy using this program, please consider telling the author
about it: Ofir Zwebner, e-mail: [email protected]
snail-mail: Ehoud 10, Tel Aviv, 69936, Israel
This program is freeware, but it took me some work to make it, so
your financial contribution is welcome.
--------------------------------------------------------------------
Wizo -- "Tod Im Freibad"
from the album "Uuaarrgh!"
Tabbed by Tim Nevaker: [email protected]
This is the opening bass riff
^ ^ ^ ^ ^ ^ ^ ^
G:--8-------8-9-----8h9-9-9-9-9-9-9-|--8h9-9-9-9-9-9-9-8h9-9-9-9-9-----||
D:----------------------------------|----------------------------------||
A:----------------------------------|----------------------------------||
E:----------------------------------|----------------------------------||

^ ^ ^ ^
G:--8h9-9-9-9-9-9-9-8h9-9-9-9-9-9-9-|
D:----------------------------------|
A:----------------------------------|
E:----------------------------------|
The opening chords go like this:
A E D E
e:--------0-----|--------0-----||
B:--2-----0-----|--3-----0-----||
G:--2-----1-----|--2-----1-----||
D:--2-----2-----|--0-----2-----||
A:--0-----2-----|--0-----2-----||
E:--------0-----|--------0-----||
The lead guitar at the beginning:
^ ^
e:----------|-------------|--17--------------------------|-------------|
B:--17b(19)-|--b(19)17----|------17--14--15--14--17b(19)-|--b(19)17----|
G:----------|-------------|------------------------------|-------------|
D:----------|-------------|------------------------------|-------------|
A:----------|-------------|------------------------------|-------------|
E:----------|-------------|------------------------------|-------------|

^ ^
e:-------------------------------||
B:--10--12--14--15--14h15p14p10--||
G:-------------------------------||
D:-------------------------------||
A:-------------------------------||
E:-------------------------------||
The main verse riff, played ska style, on the off-beats:
A E5 D5 E5
e:---------------------------------||
B:--5---5--------------------------||
G:--6---6---9---9---7---7---9---9--||
D:--7---7---9---9---7---7---9---9--||
A:--7---7---7---7---5---5---7---7--||
E:---------------------------------||
The lead part that repeats over the chorus:
[unsure about last few notes]
^ ^ ^ ^
e:--------------10----------|--------------------------||
B:--10--14--10------14--12--|--10--12--14------10------||
G:--------------------------|--------------13------11--||
D:--------------------------|--------------------------||
A:--------------------------|--------------------------||
E:--------------------------|--------------------------||
Chords over the chorus sound something like this:
e:------------------||
B:--5---------------||
G:--6---9---7-------||
D:--7---9---7---2---||
A:--7---7---5---2---||
E:--------------0---||




Ваше мнение



Капча