WIZO - Ьberflьssig vom 94' UUAARRGH!-Album

Riff 1 (2x):
Git. 1
(je Wiederholung 1x)
E5
G5
A5
E5
Git 2:
------------|-------------------------------|-------------------------------||
-----13-----|--12----12----12----12---------|--12----12----12----13---------||
--9------9--|------9------9-----9------9----|------9------9-----9------9---°||
------------|-------------------------------|------------------------------°||
------------|-------------------------------|-------------------------------||
------------|-------------------------------|-------------------------------||
Riff 2:
|----------------------------------------------------------------------------|
|----------------------------------------------------------------------------|
|-9--9--x--7--x-----------------------2--2--x--2---5--5--x--7--7-------------|
|-9--9--x--7--x---5-5-55--------------2--2--x--2---5--5--x--7--7-------------|
|-7--7--x--5--x---5-5-55---3-2-0------0--0--x--0---3--3--x--5--5-------------|
|-----------------3-3-33----------3------------------------------------------|
|--------------------------------------------------------------------------|
|--------------------------------------------------------------------------|
|-9--9--x--7--x-----------------------2--2--x--2---5-----------------------|
|-9--9--x--7--x---5-5-55--------------2--2--x--2---5--------schrammeln-----|
|-7--7--x--5--x---5-5-55---3-2-0------0--0--x--0---3-----------------------|
|-----------------3-3-33----------3----------------------------------------|
E5 (m?) G5 A5 C5
Heut schreibe ich Geschichte und morgen lieg ich im Grab
und ьbermorgen weiЯ niemand mehr,daЯ es mich mal gab
Mein Leben dauert ewig und doch nur kurze Zeit
Hat keinerlei Bedeutung in der Unendlichkeit
Riff 3
|---------------------------------|--------------------------|
|---------------------------------|--------------------------|
|-----4-4-4-----------------------|------------------4-------|
|-----2-2-2--44-5--5-5-5-5--------|----2--2--222-----4-------|
|------------22-3--3-3-3-3-2-0----|----0--0--000-----2-------|
|-0----------------------------3--|--------------------------|

E5 (m?) G5 A5 C5 (u.s.w.)
Vor mir gab es viele und nach mir hцrt's nicht auf
Bin einer von Milliarden im ewig gleichen Lauf
Die Schritte, die ich gehe ham andre schon getan
und wenn ich sie beende fдngt wieder jemand an
Riff 3 Ich will's nicht hцr'n
Ich will's nicht seh'n
Ich mach die Augen zu
Dann wird es vielleicht gehen
(Wir werden seh'n)
E5 G5 A5
Aha - Ohne Ziel und ohne Sinn
Aha - leb ich einfach vor mich hin
Aha - kein Verlust und kein Gewinn
Aha - Weil ich ьberflьssig bin - komplett
Riff 1 (Git.1 spielt die gleichen Akkorde, aber abgedдmpfte 16tel)
E5 (m?) G5 A5 C5
Von der Geburt bis in den Tod
Ist's nur ein kurzes Stьck
Die Lebensuhr tickt unaufhaltsam
nichts dreht sie zurьck
Es sind nur ein paar Jahre
ein Zahn im Rad der Zeit
Es gibt nichts zu gewinnen in der endlosen Vergдnglichkeit
Ich will's nicht hцr'n...
Riff 2
Schluss:
|----------------------0----|
|----------------------0----|
|--5-------------------0----|
|--5-------------------2----|
|--3---3--2--0---------2----|
|---------------3------0----|
Viel SpaЯ beim Spielen und ........... fragt nie..... WIZO?




Ваше мнение



Капча