Within Temptation
Ice Queen

Tabbed by: (666)LordSpeedyShit(666)

-=INTRO=-
e--------------------------------
b--------------------------------
g--------------------------------
d-6-6-6-6-2-2-2-2-6-6-6-6-x-x-x-x
a-6-6-6-6-2-2-2-2-6-6-6-6-x-x-x-x
e-4-4-4-4-0-0-0-0-4-4-4-4-8-8-8-8

e--------------------------------
b--------------------------------
g--------------------------------
d-6-6-6-6-2-2-2-2-9-9-9-9-8-8-8-8
a-6-6-6-6-2-2-2-2-9-9-9-9-8-8-8-8

e-4-4-4-4-0-0-0-0-7-7-7-7-6-6-6-6

-=VERSE=-
e--------------------------------
b--------------------------------
g--------------------------------
d-6-6-6-6-2-2-2-2-9-9-9-9-8-8-8-8
a-6-6-6-6-2-2-2-2-9-9-9-9-8-8-8-8
e-4-4-4-4-0-0-0-0-7-7-7-7-6-6-6-6

-=BRIDGE=-
e--------------------------------
b--------------------------------
g--------------------------------
d-6-6-2-2-9-9-8-8----------------
a-6-6-2-2-9-9-8-8----------------
e-4-4-0-0-7-7-6-6----------------

e--------------------------------
b--------------------------------
g--------------------------------
d-6-6-2-2-9-9-9-9-8-8-8-8--------
a-6-6-2-2-9-9-9-9-8-8-8-8--------
e-4-4-0-0-7-7-7-7-6-6-6-6--------




Ваше мнение



Капча