Persephone
by Wishbone Ash
from the album There's The Rub
Transcribed by Rob Watson [email protected]
Intro
Am Bm Am
E|-------|--------------------|-----------|12-14-15--17-15-|
B|-------|12-(12pb13)r12------|12-12-13-15|----------------|
G|--12-14|---------------14-12|-----------|----------------|
D|-------|--------------------|-----------|----------------|
A|-------|--------------------|-----------|----------------|
E|-------|--------------------|-----------|----------------|
B7 C Am B Am
E|14-------14|15----------17-15|14---15-17s19|19----20-19-17---|
B|---16-17---|---17-13---------|-------------|---------------20|
G|-----------|---------14------|-------------|-----------------|
D|-----------|-----------------|-------------|-----------------|
A|-----------|-----------------|-------------|-----------------|
E|-----------|-----------------|-------------|-----------------|
Bm Em D Em D Em D Em D
E|19-17------|-----------------------|----------|-------------|----------|
B|------20-19|17------------(12pb13)r|12--------|-------------|----------|
G|-----------|-----------------------|-----12b14|r12--(9pb11)r|9---------|
D|-----------|-----------------------|----------|-------------|----------|
A|-----------|-----------------------|----------|-------------|----------|
E|-----------|-----------------------|----------|-------------|----------|

Middle Solo

Em Bm7 Am7 Bm7 C G
E|x-x-x------------------------|----------------------|-------------------|12p10h12p10-----8p7-----------|
B|---------------11h12---------|--------------------8-|-4-7-5-------------|--------------------8---------|
G|--------11h12h14-----11-14-12|11--------------------|-------7-5-4-------|------------12--------7-------|
D|-----14----------------------|---14----9h10p9p7h9---|-------------------|------------------------9--9-7|
A|-----------------------------|------14--------------|-------------------|------------------------------|
E|-----------------------------|----------------------|-------------------|------------------------------|
Dsus4 D Dsus4 B7/D# Em Bm7 Am7 Bm7
E|-------------------------------------10-12---14-12------|------14-12------|------------------------------12-14-15|
B|----------------------------12-11-10---------------15-12|15b17-------15-12|15b17r15b17r15b17r15b17r15b17---------|
G|------9-8-7---------11-10-9-----------------------------|-----------------|--------------------------------------|
D|9-8-7-------11-10-9-------------------------------------|-----------------|--------------------------------------|
A|--------------------------------------------------------|-----------------|--------------------------------------|
E|--------------------------------------------------------|-----------------|--------------------------------------|
C G Dsus4 D Dsus4 B7/D# Em D
E|12-14-15------|10-7h10p7----7------------------------------------|---17-14-15-12-14-10-12-8-10|
B|---------15sd-|----------10---10-7---7---------------------------|---17-13-15-12-13-10-12-8-10|
G|--------------|--------------------9---9-7---7-------------------|----------------------------|
D|--------------|----------------------------9---9-7---7-----------|----------------------------|
A|--------------|------------------------------------9---9s7-5-7b9r|9---------------------------|
E|--------------|--------------------------------------------------|----------------------------|
Em D Em D Em D Em Bm7 Am Bm7
( harmonics )
E|7--14-10-12-7-10-5|7-----------------12----12|-----------------------|----------------|-----------|
B|7--15-10-12-7-10-5|7--------------------12---|7----------------------|----------------|-----------|
G|------------------|--------------------------|----------------------4|4------------4b5|r4------2b4|
D|------------------|--------------------------|-----------------------|----------------|-----------|
A|------------------|--------------------------|-----------------------|----------------|-----------|
E|------------------|--------------------------|-----------------------|----------------|-----------|
Em Bm7 Am Bm7 Em Bm7 Am Bm7
2/4 4/4
E|------------------|--------------------------|5b7-5-3-5-2------------|2h3--2-3-----|----2-3s5-3h5p3p2---|
B|------------------|-------------3-5----3---3-|------------3----------|---------3s5-|--3---------------3s|
G|r2-0---0----------|-------0-2s4-----4----4---|--------------2--------|-------------|4-------------------|
D|-----2---2--------|---0-2--------------------|-----------------------|-------------|--------------------|
A|-----------2------|--------------------------|-----------------------|-------------|--------------------|
E|------------------|--------------------------|-----------------------|-------------|--------------------|
Em D Em D Em D Em D
I Came
E|------------------|--------------------------|-----------------------|----------------|-----------|
B|5-----------3s5s3-|--------3s5s3-------------|-----------------------|----------------|-----------|
G|------------------|4--------------4-2--------|-----------------------|----------------|-----------|
D|------------------|--------------------------|-----------------------|----------------|-----------|
A|------------------|--------------------------|-----------------------|----------------|-----------|
E|------------------|--------------------------|-----------------------|----------------|-----------|




Ваше мнение



Капча

Рекомендуем