wish bone ash
blowing free
[email protected]
tabbed by alan mcintyre

intro(come in 3rd time with drums)

g---------------------------------
d---------------------------------
a--5555555555555555555555555555555
e---------------------------------

then quickly link it up

g---------------------------------
d---------------------------------
a--5555555555555555555555-5-3-----
e-----------------------------5-3-

verse

g---------------------------------
d---------------------------------
a--55555555-33333333-32-----5555
e-------------------------53-----

interlude(heres some of it ,as far as i know you just hit these notes.

g--------------------7-5-------5h7-7-----
d------------------7----7-5----------7---
a---------------5------------5----------5
e----------------------------------------

then

g----------------------------------------
d----------------------------------------
a--5555555553333333333------------------
e-------------------------333333333------

then keep hitting

g----------------------------------------
d----------------------------------------
a---5555555555555555555555555555555555555
e----------------------------------------

and there should be a part like this

g----------------------------------------
d--3-4-5-3-4-5-3-4-5-5-4-3-5-4-3-4-------
a----------------------------------------
e----------------------------------------

then it should end

so email me with compliments or questions
or speak to me on msn messenger
my emails at the top
this song was brought to you by alan




Ваше мнение



Капча

Рекомендуем