t. See http://www.olga.net/faq/ for more information. #
From: "Armstrong, Brian (B.)"
Subject: w/wishbone_ash/blowin_free.tab
Date: Wed, 10 Nov 1999 08:51:09 -0000
There seems to be very little Wishbone Ash in OLGA, which is a surprise,
so here's Blowin Free.
Intro
This is based on the D chord shape played at the 7th, 5th and 2nd frets
with the addition of
the 1st string 3 frets up and 1 fret up from the basic position. I guess
the chords are major,
sus4 and something else. You can pluck the open 4th string before
strumming each of the chords.
Have a listen to the record for the timing etc.
G G? Gsus4 G F F? Fsus4 F D D? Dsus4 D
-7--10---8----7-|-5---8---6----5-|-2---5----3----2-|------0-2-----0-2| Repeat
-8---8---8----8-|-6---6---6----6-|-3---3----3----3-|-3---3---3---3---|
-7---7---7----7-|-5---5---5----5-|-2---2----2----2-|--0-2-----0-2----|
----------------|----------------|-----------------|-----------------|
----------------|----------------|-----------------|-----------------|
----------------|----------------|-----------------|-----------------|
Hammer on the
2nd fret notes.
Play these chords before each verse and the quiet bit.
D D? Dsus4 D C G
-2---5----3----2-|-0-----3---------| Repeat
-3---3----3----3-|-1-----0---------|
-2---2----2----2-|-0-----0---------|
-----------------|-2-----0---------|
-----------------|-3-----2---------|
-----------------|-------3---------|
Verse 1
D C D C D
Verse 2
D C D C D
Quiet bit
D Am D Am D
Repeat verses 1 and 2.




Ваше мнение



Капча